Oops, an error
Loading. Please wait.

The Planets Bend Between Us Acoustic tab

version 2
version 2

Whole song

1,784 views 1 this week
2 commentsread comments
1 2 3 4 5
2 more votes to show rating
add to favorites
×
Save as Personal and add changes to this tab that will be seen only by you. Learn more ›
×
You can save this tab as Personal to edit and correct it or add notes. All changes will be seen only by you. Learn more »
launch autoscroll
font size
0
reset
how to read this tab
guitar tuner
edit
Autoscroll
slow
fast
+/-
esc
set tempo
stop
This is my first tab, so... Yeah. I had a mosey, 
and there weren't too many tabs that sounded good so 
I had a fiddle and came up with this.

You can capo it if you like. I like capo 2 personally.
Tuning's standard.

Intro:
E|-----------------------------------|
A|-----------------------------------|
D|-----------------------------------|
G|-----------------------------------|
B|--2---2---0---0---3---3---3---3----|
E|----3---3---3---3---3---3---3---3--|

E|----------------------|
A|----------------------|
D|----------------------|
G|----------------------|
B|--2---2---0---0----3--|
E|----3---3---3---3--3--|


Verse:
E|-----------------------------------|
A|-----------------------------------|
D|-----------------------------------|
G|-----------------------------------|
B|--2-2-2-2-0-0-0-0-3-3-3-3-3-3-3-3--|
E|--3-3-3-3-3-3-3-3-3-3-3-3-3-3-3-3--|

(so basically you strum the notes you played in the intro, 
don't be afraid to hit the string below occasionally, 
it gives it a little depth)


Chorus:
E|--3--3--3--|
A|--3--3--3--|
D|--0--0--0--|
G|--0--2--2--|
B|--2--0--3--|
E|--3--3--0--|

That progression also works for the bridge if you're working off the 
'Up To Now'/radio version of the song but work out a strumming 
pattern that sounds good to you. Hope it helps.



Lyrics:
The winter's marked the Earth,
It's floored with frozen glass.
You slip into my arms,
then you quickly correct yourself.

Your freezing speech bubbles
Seem to hold your words aloft.
I want the smoky clouds of laughter
to swim about me forevermore.

(chorus)
I will race you to the waterside
And from the edge of Ireland shout out loud
So they could hear it in America;
It's all for you.

The shells crack under our shoes
like punctuation points.
The planets bend between us,
A hundred million suns and stars.

The sea filled in the silence
before you said those words.
And now even in the darkness,
I can see how happy you are.

(chorus)
I will race you to the waterside
And from the edge of Ireland shout out loud
So they could hear it in America;
It's all for you.#


Thanks to guitarnoobtube for pointing out a few mistakes.
enjoy!
Suggest correction
Creating personal tab
Creating personal tab
You can edit any tab online and save it as your Personal.

You can edit, replace or remove any tab part or add personal notes – all changes will be seen only by you.

Personal tabs can be accessed anytime from any device, even offline.
Learn more »
Give kudos to tab author, rate the tab!
1 2 3 4 5
comments
print report bad tab
2 comments total.
0 reply
guitarnoobtube 42 Jan 14, 2011 02:49 AM

In the chorus, I think you meant to put

E|--3--3--3--|
A|--3--3--3--|
D|--0--0--0--|
G|--0--2--2--|
B|--2--0--3--|
E|--3--3--0--|

Because the way you have it sounds awful, and is also pretty hard to finger.

0 reply
3ChemicalKid 31 Apr 26, 2011 02:48 AM

@guitarnoobtube
yeah you're right! I meant that but typed it wrong. Sorry, it was my first tab and typing what meant was a little confusing! thanks for pointing that out though!

guest
You may want to rate the tab now too:
select rating
Wanna post a correction for this tab? Suggest correction