Oops, an error
Loading. Please wait.

We Can Run Away Now Theyre Dead And Gone bass

97 views 1 this week
1 commentread comment
1 2 3 4 5
3 more votes to show rating
add to favorites
×
Save as Personal and add changes to this tab that will be seen only by you. Learn more ›
×
You can save this tab as Personal to edit and correct it or add notes. All changes will be seen only by you. Learn more »
launch autoscroll
font size
0
reset
guitar tuner
edit
Autoscroll
slow
fast
+/-
esc
set tempo
stop
Author
Artist: Snow Patrol
Song: We Can Run Away Now They're All Dead And Gone
Album: Final Straw
Tabbed by: Futurismic
Tuning: Standard EADG

Great chilled-out song from Snow Patrol's first album and a good song for those 
starting out on bass.

Verse

G|-----------------------|
D|----7----10----9-------|
A|-55---77----88---7-000-|
E|-----------------------|

Pre-chorus

G|-------------------------|
D|-------------------------|   x4
A|-10-10-10-10-10-10-10-10-|
E|-------------------------|

Chorus

G|-----------------|-----------------|-------------------------|-------------------------|
D|-----------------|-----------------|-------------------------|-------------------------|    x3
A|-7-7-7-7-7-7-7-7-|-5-5-5-5-5-5-5-5-|-10-10-10-10-10-10-10-10-|-10-10-10-10-10-10-10-10-|
E|-----------------|-----------------|-------------------------|-------------------------|

G|-----------------|-----------------|-------------------------|
D|-----------------|-----------------|---------------7---------|
A|-7-7-7-7-7-7-7-7-|-5-5-5-5-5-5-5-5-|-5-5-5-5-5-5-5---5-000-0-|
E|-----------------|-----------------|-------------------------|

Enjoy!
Suggest correction
Creating personal tab
Creating personal tab
You can edit any tab online and save it as your Personal.

You can edit, replace or remove any tab part or add personal notes – all changes will be seen only by you.

Personal tabs can be accessed anytime from any device, even offline.
Learn more »
Give kudos to tab author, rate the tab!
1 2 3 4 5
comments
print report bad tab
1 comment total.
0 reply
Bigmouth93 134 Sep 02, 2013 02:15 PM

Haven't tried the bassline, just wanted to point out it's not from their first album; it's a b-side off a single from their third album, Final Straw.

guest
You may want to rate the tab now too:
select rating
Wanna post a correction for this tab? Suggest correction