Oops, an error
Loading. Please wait.

Youre All I Have tab

version 2
version 2

Whole song

Interactive

2,099 views 1 this week
no commentswrite comment
1 2 3 4 5
1 last vote to show rating
add to favorites
×
Save as Personal and add changes to this tab that will be seen only by you. Learn more ›
×
You can save this tab as Personal to edit and correct it or add notes. All changes will be seen only by you. Learn more »
launch autoscroll
font size
0
reset
how to read this tab
guitar tuner
edit
Autoscroll
slow
fast
+/-
esc
set tempo
stop
Author
Difficulty
Intro:

E|-7--7--|--4--4--|-7--7--|-0--0--|-------------------------|
B|-------|--------|-------|-------|-------------------------|
G|-------|--------|-------|-------|-------------------------|
D|-------|--------|-------|-------|-------------------------|
A|-------|--------|-------|-------|-------------------------|
E|-------|--------|-------|-------|-------------------------|


Verse:     This Definetly isnt perfect let me know if anyone works something better out.
                            A
E|-0-0-0-0-0-0-0-0-|-0-0-0-0-0-0-0-0|---------------------|
B|-0-0-0-0-0-0-0-0-|-2-2-2-2-2-2-2-2|---------------------|
G|-1-1-1-1-1-1-1-1-|-2-2-2-2-2-2-2-2|--x 4----------------|
D|-2-2-2-2-2-2-2-2-|-2-2-2-2-2-2-2-2|---------------------|
A|-2-2-2-2-2-2-2-2-|-0-0-0-0-0-0-0-0|---------------------|
E|-0-0-0-0-0-0-0-0-|----------------|---------------------|

Verse: Last 2 lines

E|-2-4-|-----|--7-4--|----|-------------------------------------------|
B|-----|--2--|-------|-7--|-------------------------------------------|
G|-----|-----|-------|----|-------------------------------------------|
D|-----|-----|-------|----|-------------------------------------------|
A|-----|-----|-------|----|-------------------------------------------|
E|-----|-----|-------|----|-------------------------------------------|


Pre Chorus:

E|----------------|----------------|----------------------------------|
B|----------------|----------------|----------------------------------|
G|----------------|----------------|----------------------------------|
D|-9-9-9-9-9-9-9-9|-7-7-7-7-7-7-7-7|---x 2----------------------------|
A|-9-9-9-9-9-9-9-9|-7-7-7-7-7-7-7-7|----------------------------------|
E|-7-7-7-7-7-7-7-7|-5-5-5-5-5-5-5-5|----------------------------------|

Pre Chorus: Lead

E|-2-2-2-2-2-2-2-2|-0-0-0-0-0-0-0-0|----------------------------------|
B|----------------|----------------|----------------------------------|
G|----------------|----------------|----------------------------------|
D|----------------|----------------|---x 4----------------------------|
A|----------------|----------------|----------------------------------|
E|----------------|----------------|----------------------------------|


Chorus:

E|----------------|----------------|----------------------------------|
B|----------------|----------------|----------------------------------|
G|----------------|----------------|----------------------------------|
D|-2-2-2-2-2-2-2-2|-7-7-7-7-7-7-7-7|---x 4----------------------------|
A|-2-2-2-2-2-2-2-2|-7-7-7-7-7-7-7-7|----------------------------------|
E|-0-0-0-0-0-0-0-0|-5-5-5-5-5-5-5-5|----------------------------------|

Outro Riff:

E|---------------------2-----0-------------------------------------|
B|-----5----7----9-------------------------------------------------|
G|-----------------------------------------------------------------|
D|-----------------------------------------------------------------|
A|-----------------------------------------------------------------|
E|-----------------------------------------------------------------|


easy as can be! I can't work out the outro ( its 10:20 tired ) . Any problems so i can 
and so on yahoo me jonefc2000@yahoo.com

            
            
Suggest correction
Creating personal tab
Creating personal tab
You can edit any tab online and save it as your Personal.

You can edit, replace or remove any tab part or add personal notes – all changes will be seen only by you.

Personal tabs can be accessed anytime from any device, even offline.
Learn more »
Give kudos to tab author, rate the tab!
1 2 3 4 5
comments
print report bad tab
guest
You may want to rate the tab now too:
select rating
Wanna post a correction for this tab? Suggest correction