Oops, an error
Loading. Please wait.

Youre All I Have tab

version 3
version 3

Whole song

Interactive

14,571 views 9 this week
3 commentsread comments
1 2 3 4 5
x 10
add to favorites
×
Save as Personal and add changes to this tab that will be seen only by you. Learn more ›
×
You can save this tab as Personal to edit and correct it or add notes. All changes will be seen only by you. Learn more »
launch autoscroll
font size
0
reset
how to read this tab
guitar tuner
edit
Autoscroll
slow
fast
+/-
esc
set tempo
stop
Intro (guitar 2) (with weird fantasy effects...it sounds like something from Narnia...)

E|-7~-7~-|--4~-4~-|-7~-7~-|-0~-0~-|
B|-------|--------|-------|-------|
G|-------|--------|-------|-------|
D|-------|--------|-------|-------|
A|-------|--------|-------|-------|
E|-------|--------|-------|-------|

Then Intro 2 (Guitar 1)  ( You can hear the weird Narnia :D intro in the background when
play intro 2)

E|-0-0-0-0-0-0-0-0-|-0-0-0-0-0-0-0-0|
B|-0-0-0-0-0-0-0-0-|-2-2-2-2-2-2-2-2|
G|-1-1-1-1-1-1-1-1-|-2-2-2-2-2-2-2-2|    X 4
D|-2-2-2-2-2-2-2-2-|-2-2-2-2-2-2-2-2|
A|-2-2-2-2-2-2-2-2-|-0-0-0-0-0-0-0-0|
E|-0-0-0-0-0-0-0-0-|----------------|

The Verse Guitar 1(same as the intro.....kinda..)

E|-0-0-0-0-0-0-0-0-|-0-0-0-0-0-0-0-0|
B|-0-0-0-0-0-0-0-0-|-2-2-2-2-2-2-2-2|
G|-1-1-1-1-1-1-1-1-|-2-2-2-2-2-2-2-2|    X 8
D|-2-2-2-2-2-2-2-2-|-2-2-2-2-2-2-2-2|
A|-2-2-2-2-2-2-2-2-|-0-0-0-0-0-0-0-0|
E|-0-0-0-0-0-0-0-0-|----------------|

Then this...after the verse has been played 4 times ( guitar 2)

E|-2-4~|-----|--7-4~-|----|
B|-----|--2~-|-------|-7~-|
G|-----|-----|-------|----|      X 2
D|-----|-----|-------|----|
A|-----|-----|-------|----|
E|-----|-----|-------|----|

Pre Chorus (which ever guitar you want)

E|----------------|-----------------|----------------|-----------------|
B|----------------|-----------------|----------------|-----------------|
G|-4-4-4-4-4-4-4-4|-4-4-4-4-4-4-4-4-|-2-2-2-2-2-2-2-2|-2-2-2-2-2-2-2-2-|
D|-4-4-4-4-4-4-4-4|-4-4-4-4-4-4-4-4-|-2-2-2-2-2-2-2-2|-2-2-2-2-2-2-2-2-|
A|-2-2-2-2-2-2-2-2|-2-2-2-2-2-2-2-2-|-0-0-0-0-0-0-0-0|-0-0-0-0-0-0-0-0-|
E|----------------|-----------------|----------------|-----------------|

Chorus (which ever guitar you want..again)

E|----------------|----------------|
B|----------------|----------------|
G|----------------|----------------|  X 2 (strum each chord 16 times
D|-2-2-2-2-2-2-2-2|-7-7-7-7-7-7-7-7|       instead of 8, like shown....im
A|-2-2-2-2-2-2-2-2|-7-7-7-7-7-7-7-7|       lazy and couldnt be bothered to
E|-0-0-0-0-0-0-0-0|-5-5-5-5-5-5-5-5|       write it all out.)

Then Verse again

Then Pre chorus twice

Then Chorus X 4

Then this bridge (guitar 2 only)

E|-0-0-0-0-0-0-0-0-|-0-0-0-0-0-0-0-0|
B|-0-0-0-0-0-0-0-0-|-2-2-2-2-2-2-2-2|
G|-1-1-1-1-1-1-1-1-|-2-2-2-2-2-2-2-2|  X 4
D|-2-2-2-2-2-2-2-2-|-2-2-2-2-2-2-2-2|
A|-2-2-2-2-2-2-2-2-|-0-0-0-0-0-0-0-0|
E|-0-0-0-0-0-0-0-0-|----------------|

Then the last Pre Chorus twice

The last Chorus 4 times

Then the outro which is the same as the intro, but the werid Narnia bit is played 3 
instead of twice....so its still heard when guitar 1 stops)

I have a line 6 and the insane setting turned down a bit gives a good chorus sound...The 
setting on it is good for the less distorted sounds in the song, but you need a lot of bass.

Just listen to the song to get everything right.

and that as they say is that...like the Deadwood tab..any comments, suggestions, abuse,
or anything else that springs to mind email me.....Alexbarraclough@hotmail.com

Cheers, Please rate
Suggest correction
Creating personal tab
Creating personal tab
You can edit any tab online and save it as your Personal.

You can edit, replace or remove any tab part or add personal notes – all changes will be seen only by you.

Personal tabs can be accessed anytime from any device, even offline.
Learn more »
comments
print report bad tab
3 comments total.
0 reply
cheezwinkle 10 Feb 27, 2007 08:34 PM

Great tab! In the chorus you can just play
G|-----2-2
D|-2-2-0-0
A|-0-0-0-0
E|-0-0----

if that makes sense

0 reply
cheezwinkle 10 Feb 27, 2007 08:35 PM

my bad... i meant 022, not 002, aw man im so confused :S

0 reply
JoannaG 64 Jun 10, 2010 08:35 AM

It diffiately played differently, Gary plays about half way down the neck. still sound pretty good though.

guest
You may want to rate the tab now too:
select rating
Wanna post a correction for this tab? Suggest correction