Oops, an error
Loading. Please wait.

Glitter And Sparkle bass

16 views 1 this week
no commentswrite comment
1 2 3 4 5
3 more votes to show rating
add to favorites
×
Save as Personal and add changes to this tab that will be seen only by you. Learn more ›
×
You can save this tab as Personal to edit and correct it or add notes. All changes will be seen only by you. Learn more »
launch autoscroll
font size
0
reset
guitar tuner
edit
Autoscroll
slow
fast
+/-
esc
set tempo
stop
About this tab version
The bass tab, with tuning DADG, has a detailed description on strumming patterns by comparing the bass to the guitar during the guitar solo. Proving how the bass plays a less complicated, syncopated version with the same chords. The bass tab is also easy to read by placing the tuning on every line of tab and it has a specified number to show how many times to play a note rather than the musician counting every individual number. Was this info helpful? Yes No
This Is My First Tab, On the Bass So I Hope You Like It :P
Nobody has made a tab for this song so i gave it a try because this is my favourite song by SWPB.
Please Rate 5.

[Intro]
*Straight away*
G|-----------------------------|
D|-----------------------------|
A|-----------------------------|
D|-9---55----5-----6(x8)-------|

"One, Two, Three Let's Go!"
G|-----------------------------|   |-----------|
D|-----------------------------|   |-----------|
A|6(X15)-5(X15)3(X16)----------|   |-------5---|
D|--------------------6(x16)---|   |-8--6----6-|

[Verse]
G|-----------------------------|
D|-----------------------------|
A|-6(x16)-4(x16)-3(x16)--------|
D|----------------------6(x16)-|(x2
)

[Pre-Chorus]
G|-------------------------------------------------|            |---------------|
D|-------------------------------------------------|            |---------------|
A|-66-666666---55-444444---33-333333---------------|            |---------------|
D|-------------------------------------66-666666---|(X2)        |-8(X15)-10/7---|

[Chorus]
G|-------------------------------|            |------------------------------|
D|-------------------------------|            |------------------------------|
A|-------8(x16)-11(x16)-6(x16)---|            |---6(x8)-8(x8)-11(x8)-8(x8)---|
D|-6(x16)------------------------|(x2)        |------------------------------|

[Verse]
G|-----------------------------|
D|-----------------------------|
A|-6(x16)-4(x16)-3(x16)--------|
D|----------------------6(x16)-|      x2

[Pre-Chorus]
G|-------------------------------------------------|            |---------------|
D|-------------------------------------------------|            |---------------|
A|-66-666666---55-444444---33-333333---------------|            |---------------|
D|-------------------------------------66-666666---|(X2)        |-8(X15)-10/7---|

[Solo]
*Part of the solo is played in a syncopated rhythm to the guitar using the same chords in a deeper tone*
            Part A                 Part B    Part C                         Part D      
     [Play] Part C

G|-----------------------------|   |---------|   |---------|    |-------------------------------------------|
D|-----------------------------|   |---------|   |----0--5-|    |-------------------------------------------|
A|-6(X16)-3(x16)---------------|   |-----5---|   |--0---0--|    |--8-8-8-8-10-10-10-10-11-11-11-11-8-8-8-8--|
D|---------------6(x16)5(x16)--|   |-5-7---7-|x2 |---------|(x2)|-------------------------------------------|

[Outro]
The Outro of other verses. Just extend notes which are obviously lengthened. Play:
[Chorus]
G|-------------------------------|            |------------------------------|
D|-------------------------------|            |------------------------------|
A|-------8(x16)-11(x16)-6(x16)---|            |---6(x8)-8(x8)-11(x8)-8(x8)---|
D|-6(x16)------------------------|     x2     |------------------------------|

[Intro] 
(From On Two Three and Play this after playing the chorus when Jeremy 13th Says)
One Two Three Here We

[Go Again
]
G|-----------------------------|   |-----------|
D|-----------------------------|   |-----------|
A|6(X15)-5(X15)-3(X16)---------|   |-------5---|
D|---------------------6(x16)--|   |-8--6----6-|

8(x16) indicated how many times to strum that fret eg.         8/10 slide from the 8th note
to the 10th note

            
            
Suggest correction
Creating personal tab
Creating personal tab
You can edit any tab online and save it as your Personal.

You can edit, replace or remove any tab part or add personal notes – all changes will be seen only by you.

Personal tabs can be accessed anytime from any device, even offline.
Learn more »
Give kudos to tab author, rate the tab!
1 2 3 4 5
comments
print report bad tab
guest
You may want to rate the tab now too:
select rating
Wanna post a correction for this tab? Suggest correction