Oops, an error
Loading. Please wait.

Anti-Anti Tab

version 1
version 1

Whole song

1,048 views 1 this week
no commentswrite comment
1 2 3 4 5
please rate
add to favorites
launch autoscroll
font size
0
reset
how to read this tab
guitar tuner
Autoscroll
slow
fast
+/-
esc
set tempo
stop
Help us to improve Ultimate-Guitar.com Take our survey!
×
Contributor
Difficulty
Tuning
novice
D A D G B E
-------------------------------------------------------------------------------
                             Snowden-Anti-Anti
-------------------------------------------------------------------------------
Tabbed by:Chowmonkey


Tuning:Drop D
The first thing can be played with 1 string but it sounds cooler with both it goes on 
out the song so its not guitar though.
e|---------------------------------------------------------------------------|
B|---------------------------------------------------------------------------|
G|-8-let ring----------------------------------------------------------------|
D|-13-let ring--------13---16-----------13---16-14------13---16--------------|
A|----------------------------14--------------------------------14-----------|
E|---------------------------------------------------------------------------|
Just after intro the bass part
e|---------------------------------------------------------------------------|
B|---------------------------------------------------------------------------|
G|---------------------------------------------------------------------------|
D|---------------------------------------------------------------------------|
A|---------------------------------------------------------------------------|
E|-2--4--9--4-4-4-6--1--2----------------------------------------------------|
The bass verse
e|---------------------------------------------------------------------------|
B|---------------------------------------------------------------------------|
G|---------------------------------------------------------------------------|
D|---------------------------------------------------------------------------|
A|--7-7-7-7-7-7-7-7-7-7-7-7-7-7-7-7------------------------------------------|
E|------------------------------------9-9-9-9-9-9-9-9-6-6-6-6-6-6-6-6--------|

e|---------------------------------------------------------------------------|
B|---------------------------------------------------------------------------|
G|---------------------------------------------------------------------------|
D|---------------------------------------------------------------------------|
A|-7-7-7-7-7-7-7-7-7-X6------------------------------------------------------|
E|---------------------9-9-9-9-9-9-9-9-6-6-6-6-6-6-6-6-----------------------|
Then the bass part nd then.. Chorus
e|---------------------------------------------------------------------------|
B|---------------------------------------------------------------------------|
G|---------------------------------------------------------------------------|
D|-13--16-------13--16-14-X3---13--16----------------------------------------|
A|--------14--------------------------14-------------------------------------|
E|---------------------------------------------------------------------------|
Then Bass Part nd verse nd chorus then near the end this plays accompanying the bass 
now nd then
e|---------------------------------------------------------------------------|
B|-16-16---------------------------------------------------------------------|
G|-15-15---------------------------------------------------------------------|
D|-13-13---------------------------------------------------------------------|
A|---------------------------------------------------------------------------|
E|---------------------------------------------------------------------------|
The ending bit
e|---------------------------------------------------------------------------|
B|---------------------------------------------------------------------------|
G|-8-----------------------13-12----13-15-16---------------------------------|
D|-13--16-13-11--16-11-13--------13------------------------------------------|X2
A|---------------------------------------------------------------------------|
E|---------------------------------------------------------------------------|

Prob quite hard 2 understand but just listen to the song nd put evrything in place.. thx..
Suggest correction new What's this?
You can suggest a correction to this tab. Community and Mods will review your correction and vote to approve or reject it.
comments
We did not receive enough feedback on this tab! Please rate:
print report bad tab
1 2 3 4 5
guest
You may want to rate the tab now too:
select rating
Please do not post tabs as comments. Select "correction" instead!