Oops, an error
Loading. Please wait.

Kahit Maputi Na Ang Buhok Ko Bass Tab

version 2
version 2

Whole song

2,183 views 3 this week
no commentswrite comment
1 2 3 4 5
please rate
add to favorites
launch autoscroll
font size
0
reset
guitar tuner
Tab Pro tools
  • play this tab
  • loop segment
  • change instrument
  • show fretboard
  • metronome
×
Best way to learn
"Kahit Maputi Na Ang Buhok Ko"
Autoscroll
slow
fast
+/-
esc
set tempo
stop
Contributor
Difficulty
novice
Kahit Maputi Na Ang Buhok Ko by Soapdish
Tabbed by Ayie Visitacion

Standard Tuning

Intro
G|-------------------------------------|
D|-------------------------------------|
A|-------------------------------------|2x
E|-5555555555555555-7777777777777777---|


Verse I
G|------|-----|-------|----------------|
D|------|-----|-------|----------------|
A|------|-----|-------|----------------|
E|---5--|--7--|--5-55-|--7-77--77------|


Chorus
G|-------------------------------------|
D|----------------6--------------------|
A|-4444444-444-4-7---------------------|
E|--------4---4------22222222222445522-|

G|-------------------------------------|
D|-------------------------------------|
A|-55555555----------------------------|
E|---------00000000--5555555555555555--|

G|-------------------------------------|
D|-------------------------------------|
A|-555555556666666644444444------------|
E|--------------------------22222222---|

G|-------------------------------------|
D|-------------------------------------|
A|-22222222----------------------------|
E|----------0000000000000000-----------|


Repeat Intro


Verse II
G|-2-42-42-42-42--64-64-64-64----------|
D|-----2-----2------4-----4------------|
A|-------------------------------------|2x
E|-------------------------------------|


Repeat Chorus

continuation after chorus
G|-------------------------------------|
D|-------------------------------------|
A|-------------------------------------|
E|-5555555555555555--------------------|


Instrumental: just repeat intro


Chorus
G|-------------------------------------|
D|----------------6--------------------|
A|-4444444-444-4-7---------------------|
E|--------4---4------22222222222445522-|

G|-------------------------------------|
D|-------------------------------------|
A|-55555555----------------------------|
E|---------00000000--5555555555555555--|

G|-------------------------------------|
D|-------------------------------------|
A|-555555556666666644444444------------|
E|--------------------------22222222---|

G|-------------------------------------|
D|-------------------------------------|
A|-22222222----------44444444----------|
E|----------00000000----------22222222-|

G|-------------------------------------|
D|-------------------------------------|
A|-22222222----------------------------|
E|----------0000000000000000-----------|


Repeat Intro


Enjoy!!!

| /  slide up
| \  slide down
| h  hammer-on
| p  pull-off
| ~  vibrato
| +  harmonic
| x  Mute note
comments
We did not receive enough feedback on this tab! Please rate:
print report bad tab
1 2 3 4 5
I want to post or [tab]
guest
You may want to rate the tab now too:
select rating
Please do not post tabs as comments. Select "correction" instead!