Oops, an error
Loading. Please wait.

Pwede Ba Tab

version 1
version 1

Whole song

Interactive

10,491 views 15 this week
7 commentsread comments
1 2 3 4 5
accurate
x 7
add to favorites
launch autoscroll
font size
0
reset
how to read this tab
guitar tuner
Tab Pro tools
  • play this tab
  • loop segment
  • change instrument
  • show fretboard
  • metronome
×
Best way to learn
"Pwede Ba"
Autoscroll
slow
fast
+/-
esc
set tempo
stop
Contributor
Intro: 2 guitars

Guitar 1: E-F#m-G#m-A (2x)---> (Strumming to)
eto u'ng chords ng Guitar 1
E       -       022100
F#m     -       244222
G#m     -       466444
A       -       577655

Guitar 2:

e--7--------------------9----------|
b--9/10-9---------------10--10h9---|
g--9------------9-------11---------|
d--9----------9---------11---------|
a--7------7h9-----7-----9----------|
e----------------------------------|


e--11-----11---11-------------12------|
b--12------12---12--------------------|
g--13--13---13---13--------14---------|
d--13---------------------------------|
a--11------------------0--------------|
e-------------------------------------|

two times (2x)

Verses: Gamitin nyo to

Guitar1 : E-F#m-G#m-A (Strum nyo to)

Guitar 2:

e--0--------------9------------------|
b--0--------------10-----------------|
g--1-let it ring--11-let it ring-----|
d--2--------------11-----------------|
a--2--------------9------------------|
e--0---------------------------------|


e--11---------------0------------------|
b--12---------------0------------------|
g--13-let it ring---2--let it ring-----|
d--13---------------2------------------|
a--11---------------0------------------|
e--------------------------------------|

two times (2x)

Refrain:
  “Huwag kang mag-alala..”)

Guitar1: F#m-G#m (3x)
           A-Am (“pero ayos lang..”)

Guitar2:

e--9-----9----9----------11----11-----11------|
b---10----10---10----------12----12-----12----|
g-----11----11---11----------13----13-----13--|
d---------------------------------------------|
a---------------------------------------------|
e---------------------------------------------|

three times (3x)
then

e--12---------------12---------------|
b--14---------------13---------------|
g--14-let it ring---14---------------|
d--14---------------14---------------|
a--12---------------12---------------|
e------------------------------------|

para sa mga susunod na verses at refrains, gamitin nyo ang pattern na yan.

Adlib:

Guitar 1 : E-F#m-G#m-A
        (Strum nyo to)

Guitar2

e-------------------------|
b-------------------------|
g---------6--4------------|
d---/6--------------------|
a-------------------------|
e-------------------------|

e-------------------------|
b-------------------------|
g--4h6---6p4---4-6--------|
d------------6------------|
a-------------------------|
e-------------------------|


e-------------------------|
b--7b-5----------------------|
g--------6-----------|
d--------------------------|
a-------------------------|
e-------------------------|

e-------------------------|
b--------5-7--7/9-7/9-----|
g----4-6------------------|
d--6----------------------|
a-------------------------|
e-------------------------|


e-----------------|
b--7b--7----------|
g---------9/6-----|
d-----------------|
a-----------------|
e-----------------|



e----------------------------|
b----------------------7b-5--|
g--6p4---4h6-6p4-----------6-|
d---------------6------------|
a----------------------------|
e----------------------------|

e----------------------------|
b--12b-12-9-----------9------|
g----------11-----9h11--11---|
d----------------------------|
a----------------------------|
e----------------------------|

e-------------------------|
b----------9-12-12--------|
g--9--9-11----------------|
d---11--------------------|
a-------------------------|
e-------------------------|



comments
print report bad tab
7 comments total. Showing first comments.
-1 reply
jobdeleon wrote on July 11 2006, 07:52 am

supot ang soapdish.

0 reply
korn113 wrote on July 14 2006, 07:56 am

gago ka.. kung ayaw mo sa banda, wag mo nalang tignan ang tabs..

0 reply
lllmacky wrote on July 15 2006, 08:20 am

SUPOT SOAPDISH!!? sino nag sabi! sisipain ko!

I want to post or [tab]
guest
You may want to rate the tab now too:
select rating
Please do not post tabs as comments. Select "correction" instead!