Oops, an error
Loading. Please wait.

Tensionado Tab

version 1
version 1

Whole song

24,704 views 63 this week
no commentswrite comment
1 2 3 4 5
x 4
add to favorites
×
Save as Personal and add changes to this tab that will be seen only by you. Learn more ›
×
You can save this tab as Personal to edit and correct it or add notes. All changes will be seen only by you. Learn more »
save as personal
new!
launch autoscroll
font size
0
reset
how to read this tab
guitar tuner
Autoscroll
slow
fast
+/-
esc
set tempo
stop
Song: Tensionado
Artist: Soapdish

[Intro]
Guiatr 2
e|----------------------------------------------------------|
B|----------------------------------------------------------|
G|----------------------------------------- ----------------|
D|---7----7--7---x---7----7--7---x---7-----7--7---x---7-----|
A|---7----7--7---x---7----7--7---x---7-----7--7---x---7-----|
E|---5----5--5---x---5----5--5---x---5-----5--5---x---5-----|

Guiatr 1
e|----------------------------------------------------------|
B|---5---5--5--------5-----5--5-------5------5--5------5----|
G|---6---6--6--------6-----6--6-------6------6--6------6----|
D|---7---7--7--------7-----7--7-------7------7--7------7----|
A|---7---7--7--------7-----7--7-------7------7--7------7----|
E|----------------------------------------------------------|

[Verse]
Guita 1 [ A - C#m - Cm - Bm - Dm - E ]
e|-------------------4--4--4--4---3---2--2--5--2---5--5--5--5---7--7--7---|
B|---5--5--5--5---5--5--5--5---4---3--3--3--3---6--6--6--6---9--9--9--9---|
G|---6--6--6--6---6--6--6--6---5---4--4--4--4---7--7--7--7---9--9--9--9---|
D|---7--7--7--7---6--6--6--6---5---4--4--4--4---7--7--7--7---9--9--9--9---|
A|---7--7--7--7---4--4--4--4---3---2--2--2--2---5--5--5--5---7--7--7--7---|
E|------------------------------------------------------------------------|

[Chorus]
Guitar 1 [ D - C#m - D - C#m - Bm - Dm - E ]
e|---5--5--5--5---4--4--4--4---5--5--5--5---4--4--4--4---5--5--5--5---7--7---|
B|---7--7--7--7---5--5--5--5---7--7--7--7---5--5--5--5---6--6--6--6---9--9---|
G|---7--7--7--7---6--6--6--6---7--7--7--7---6--6--6--6---7--7--7--7---9--9---|
D|---7--7--7--7---6--6--6--6---7--7--7--7---6--6--6--6---7--7--7--7---9--9---|
A|---5--5--5--5---4--4--4--4---5--5--5--5---4--4--4--4---5--5--5--5---7--7---|
E|---------------------------------------------------------------------------|

[Verse] x2
Guita 1 [ A - C#m - Cm - Bm - Dm - E ]
e|-------------------4--4--4--4---3---2--2--5--2---5--5--5--5---7--7--7---|
B|---5--5--5--5---5--5--5--5---4---3--3--3--3---6--6--6--6---9--9--9--9---|
G|---6--6--6--6---6--6--6--6---5---4--4--4--4---7--7--7--7---9--9--9--9---|
D|---7--7--7--7---6--6--6--6---5---4--4--4--4---7--7--7--7---9--9--9--9---|
A|---7--7--7--7---4--4--4--4---3---2--2--2--2---5--5--5--5---7--7--7--7---|
E|------------------------------------------------------------------------|

[Chorus]
Guitar 1 [ D - C#m - D - C#m - Bm - Dm - E ]
e|---5--5--5--5---4--4--4--4---5--5--5--5---4--4--4--4---5--5--5--5---7--7---|
B|---7--7--7--7---5--5--5--5---7--7--7--7---5--5--5--5---6--6--6--6---9--9---|
G|---7--7--7--7---6--6--6--6---7--7--7--7---6--6--6--6---7--7--7--7---9--9---|
D|---7--7--7--7---6--6--6--6---7--7--7--7---6--6--6--6---7--7--7--7---9--9---|
A|---5--5--5--5---4--4--4--4---5--5--5--5---4--4--4--4---5--5--5--5---7--7---|
E|---------------------------------------------------------------------------|

[Bridge]
Lead
e|------------------------------------------------------------------------|
B|--------------------------------12--------------------------------------|
G|---14-14-14-14-14-14b-/ --11-14----13-------------13-14--11b------------|
D|---------------------------------------14-14--14-------------12-12------|
A|------------------------------------------------------------------------|
E|------------------------------------------------------------------------|

e|------------------------------------------------------------------------|
B|------------12---14---12------------12---14---12------------12-12-/-14b-|
G|---11-14------11---11---11-14-11--11---11---11-14-11----11--------------|
D|------------------------------------------------------------------------|
A|------------------------------------------------------------------------|
E|------------------------------------------------------------------------|

e|-----------------------------------------------------------------|
B|---14-12----------------------------------------12-12-h-14-14b---|
G|-----------14-13-11~----------------11-14------------------------|
D|--------------------------14~-11-14------------------------------|
A|-----------------------------------------------------------------|
E|-----------------------------------------------------------------|

e|----------------------------------------------------12-\-14~~~----|
B|----------------------------------12-14--12-14--------------------|
G|---------------11-14--11-14---------------------------------------|
D|------11-14-------------------------------------------------------|
A|---12-------------------------------------------------------------|
E|------------------------------------------------------------------|

[Last Chorus] [ D - C#m - D - C#m - D - C#m - D - C#m - Bm - Dm ]

[Outro]
Guiatr 2
e|----------------------------------------------------------|
B|----------------------------------------------------------|
G|----------------------------------------- ----------------|
D|---7----7--7---x---7----7--7---x---7-----7--7---x---7-----|
A|---7----7--7---x---7----7--7---x---7-----7--7---x---7-----|
E|---5----5--5---x---5----5--5---x---5-----5--5---x---5-----|

Guiatr 1
e|----------------------------------------------------------|
B|---5---5--5--------5-----5--5-------5------5--5------5----|
G|---6---6--6--------6-----6--6-------6------6--6------6----|
D|---7---7--7--------7-----7--7-------7------7--7------7----|
A|---7---7--7--------7-----7--7-------7------7--7------7----|
E|----------------------------------------------------------|


************************************

| x  Dead note
| b  Bend
| /  Slide up
| h  Hammer-on
| ~  Vibrato
| \  Slide down

************************************
Suggest correction
comments
print report bad tab
guest
Wanna post a correction for this tab? Suggest correction