Oops, an error
Loading. Please wait.

Abstinencia Tab

by Sober
86 views 1 this week
no commentswrite comment
1 2 3 4 5
3 more votes to show rating
add to favorites
launch autoscroll
font size
0
reset
how to read this tab
guitar tuner
×
Best way to learn
"Abstinencia"
Autoscroll
slow
fast
+/-
esc
set tempo
stop
NOTACION

h= hammer on
p= pull off
s= slide
()= harmónico
>= mantener el sonido
*= tocar varias veces esa nota o acorde
PM= palm muted (si va seguido de una línea de puntos hacerlo
hasta donde termina la línea de puntos)

------------------------------------------------------------

AFINACION

Dropped D: afina la sexta cuerda de tu guitarra dos semito-
nos menos (de E a D) y las cinco cuerdas restantes déjalas
en afinación standar

------------------------------------------------------------


INTRO

1)

[Esto lo hace el bajo]

----------------------------------------------
----------------------------------------------
----------------------------------------------
------------------8-8-------------------------
------------0-3s8-----------------0-5--0-3-3--
--1-0--1-0--------------1-0--1-0--------------

2)

---------------------(12)--
---------------------------
---------------------------
--1--0-0--1--0--(7)--------
--1--0-0--1--0-------------
--1--0-0--1--0-------------


VERSO

1) (Abre tus manos, relajate,...)

----------------
----------------
----------------
--1--0--1--0-0--
--1--0--1--0-0--
--1--0--1--0-0--
  PM..........

2) (...es el juego que ganaré...)

Tocar lo mismo que en Intro 2


PRE-CHORUS

Guitarra 1
                          
--7-----7-----7-----7-----7-----7-----7----7----7-----7-----
----7-----7-----7-----7-----7-----7-----7----7----7-----7---
------4-----4-----4-----4-----------0----0-----0----0-------
------------------------------------------------------------
------------------------------------------------------------
------------------------------------------------------------

Guitarra 2

-------------------------------------------
-------------------------------------------
-------------------------------------------
-------------------------------------------
--9-9--9-9--9-9--9--0--5-5--5-5--5-5--5-5--
--9-9--9-9--9-9--9--0--5-5--5-5--5-5--5-5--
  PM.....................................

2)

------------------------------------------------------------
------------------------------------------------------------
--7-7-7-7-7-7--9-9-9-9-9-9-9--9s12--12-12-12-12--11--11-11--
------------------------------------------------------------
--5-5-5-5-5-5--7-7-7-7-7-7-7--7s10--10-10-10-10---9---9--9--
--0-0-0-0-0-0--0-0-0-0-0-0-0--0------0--0--0--0---0---0--0--

-----------------
-----------------
-11-11-----------
-----------------
--9--0-----------
--0--0-----------


CHORUS (Córtame las cuerdas que yo até...)

1)

Guitarra 1

--7>----3>--
--7>----3>--
--7>----4>--
--9>----5>--
------------
------------

Guitarra 2

-------------------------------
-------------------------------
-------------------------------
--9-9--9-9--9--0--5-5--5-5--5--
--9-9--9-9--9--0--5-5--5-5--5--
--9-9--9-9--9--0--5-5--5-5--5--

2)

Tocar lo mismo que en Pre-chorus 2


POST-CHORUS

1)

Guitarra 1

[Con efectos]

------------------------------------------------------------
------------------------------------------------------------
--7s11>-s10-10>--11p10--7>---7-7*--7s11--11>--14s7s10--10>--
------------------------7>----------------------------------
------------------------------------------------------------
------------------------------------------------------------

---------------------
---------------------
-s7s10--10>--14s13>--
-------------14s13>--
---------------------
---------------------

Guitarra 2

-------------------------------------
-------------------------------------
-------------------------------------
-------------------------------------
--0--12--0-0--12--0--12--0-0-0--13>--
--0--12--0-0--12--0--12--0-0-0--13>--
  PM..........................

2)

Guitarra 1

----------------------
--3>--5--6>--8s3--3>--
--2>--4--5>--7s2--2>--
----------------------
----------------------
----------------------

Guitarra 2

----------------
----------------
----------------
--1--0--1--0-0--
--1--0--1--0-0--
--1--0--1--0-0--

3)

Guitarra 1

-----------------------------------------------------
--7>--8s10--10s11>--10--8--8s10>--8>--8h10p8--7>-s?--
-----------------------------------------------------
-----------------------------------------------------
-----------------------------------------------------
-----------------------------------------------------

Guitarra 2

------------------------
------------------------
------------------------
--1--0-0--1--0-0--1--0--
--1--0-0--1--0-0--1--0--
--1--0-0--1--0-0--1--0--
Suggest correction
Give kudos to tab author, rate the tab!
1 2 3 4 5
comments
print report bad tab
guest
You may want to rate the tab now too:
select rating
Wanna post a correction for this tab? Suggest correction