Oops, an error
Loading. Please wait.

Clavos Tab

by Sober
19 views 1 this week
no commentswrite comment
1 2 3 4 5
3 more votes to show rating
add to favorites
launch autoscroll
font size
0
reset
how to read this tab
guitar tuner
×
Best way to learn
"Clavos"
Autoscroll
slow
fast
+/-
esc
set tempo
stop
NOTACION

h= hammer on
>= mantener el sonido
PM= palm muted (si va seguido de una línea de puntos hacerlo
hasta donde termina la línea de puntos)

------------------------------------------------------------
------------------------------------------------------------

AFINACION

Dropped D: afina la sexta cuerda de tu guitarra dos semito-
nos menos (de E a D) y las cinco cuerdas restantes déjalas
en afinación standar

------------------------------------------------------------
------------------------------------------------------------


-----
INTRO
-----


1)


------
------
--4>--
--2>--
--2>--
--2>--

--------------------------------------
--------------------------------------
--16--16--16--16--16--16--16--16--16--
--14--14--14--14--14--14--14--14--14--
--14--14--14--14--14--14--14--14--14--
--14--14--14--14--14--14--14--14--14--


2) [Con efectos]


--------------------------------------
--------------------------------------
-------------------------------------- (x8)
--9--7h9--7--7--10--10--10--10--7--7--
--9--7h9--7--7--10--10--10--10--7--7--
--9--7h9--7--7--10--10--10--10--7--7--


-----
VERSO
-----


1) (Solo pido perdón, ojos que lloran...)


------------------0-----
--------0------------0--
---------------0-------- (x8)
------------------------
-----9------------------
--9--------10-----------


2) (Puedo ver tu rostro, puedo oír tu voz,...)


Tocar lo mismo que en la parte 2) de la Intro


------
CHORUS (Cada golpe me ha partido en dos...)
------


-----------------------------------------------------------
-----------------------------------------------------------
--4--4--4--4--4--4--4--12--11--11--11--11--11--11--11--11-- (x4)
--2--2--2--2--2--2--2--10---9---9---9---9---9---9---9---9--
--2--2--2--2--2--2--2--10---9---9---9---9---9---9---9---9--
--2--2--2--2--2--2--2--10---9---9---9---9---9---9---9---9--


-----
FINAL (Un dios, un dios, cada clavo me recuerda...)
-----


--------------------------------0--------
-----------------------------------0-----
--------4>--12--11--11--11--11--------0-- (x3)
--2--2--2>--10---9---9---9---9-----------
--2--2--2>--10---9---9---9---9-----------
--2--2--2>--10---9---9---9---9-----------
  PM..

---------------------------
---------------------------
-----------------12>--11>--
--2--2--2--2--2--10>---9>--
--2--2--2--2--2--10>---9>--
--2--2--2--2--2--10>---9>--
  PM...........


------------------------------------------------------------
------------------------------------------------------------
Suggest correction
Give kudos to tab author, rate the tab!
1 2 3 4 5
comments
print report bad tab
guest
You may want to rate the tab now too:
select rating
Wanna post a correction for this tab? Suggest correction