Oops, an error
Loading. Please wait.

Condenado Bass

by Sober
31 views 1 this week
no commentswrite comment
1 2 3 4 5
3 more votes to show rating
add to favorites
launch autoscroll
font size
0
reset
guitar tuner
×
Best way to learn
"Condenado"
Autoscroll
slow
fast
+/-
esc
set tempo
stop
Atentos, que la cuarta cuerda esta afinada en Re.

1ª parte
|----------|
|----------|
|-55-33----|
|-------66-| X4

2ª parte
|-----------------|
|-----------------|
|-55-33-----------|
|-------66-3-560--|  X8

3ª parte

|------------------------------------------------------|
|------------------------------------------------------|
|----------------------------------------1-------------|
|-1-000-1-000-1111-1-000-1-00-1-000-10-13-0-1000-100-|  X2

4ª parte

|--------------|---------------------------------------|
|---57---575---|---------------------------------------|
|-5-----5----8-|---------------------------------------|
|--------------|-8-88-88-888--3-33-33-333--7-77-77-777-|
Suggest correction
Give kudos to tab author, rate the tab!
1 2 3 4 5
comments
print report bad tab
guest
You may want to rate the tab now too:
select rating
Wanna post a correction for this tab? Suggest correction