Oops, an error
Loading. Please wait.

Condenado Tab

by Sober
42 views 1 this week
no commentswrite comment
1 2 3 4 5
3 more votes to show rating
add to favorites
×
Save as Personal and add changes to this tab that will be seen only by you. Learn more ›
×
You can save this tab as Personal to edit and correct it or add notes. All changes will be seen only by you. Learn more »
save as personal
new!
launch autoscroll
font size
0
reset
how to read this tab
guitar tuner
Autoscroll
slow
fast
+/-
esc
set tempo
stop
NOTACION

s= slide
>= mantener el sonido
*= tocar varias veces esa nota o acorde
PM= palm muted (si va seguido de una línea de puntos hacerlo
hasta donde termina la línea de puntos)

------------------------------------------------------------

AFINACION

Dropped D: afina la sexta cuerda de tu guitarra dos semito-
nos menos (de E a D) y las cinco cuerdas retantes déjalas
en afinación standar

------------------------------------------------------------


INTRO

1)

Guitarra 1

-------
--20*--
-------
-------
-------
-------

Guitarra 2
                 (x4)
---------------------¡-----
---------------------¡-----
---------------------¡-----
--12-12--10-10--6-6>-¡-6---
--12-12--10-10--6-6>-¡-6---
--12-12--10-10--6-6>-¡-6*--
                       PM

2)

Guitarra 1

--------------------------------
--------------------------------
--------------------------------
--12-12--10-10--6-6--3--5-6--0--
--12-12--10-10--6-6--3--5-6--0--
--12-12--10-10--6-6--3--5-6--0--

Guitarra 2

---------------
---------------
--7---10--12---
---------------
--5*--8*--10*--
---------------


VERSO
                   xxxxxxxxxxxx
------------------¡------------¡--
------------------¡------------¡--
------------------¡------------¡--
--1-0--0-0--1-0-0-¡-0-1--1-1-1-¡--
--1-0--0-0--1-0-0-¡-0-1--1-1-1-¡--
--1-0--0-0--1-0-0-¡-0-1--1-1-1-¡--
                    PM........

La segunda vez que toques este riff en vez de tocar lo que
pone en la zona marcada con 'x' toca esto:

---------
---------
---------
--0--1>--
--0--1>--
--0--1>--

Y en un momento dado del verso toca esto:

[Sin distorsión y rasgueado lentamente]

------
------
--5>--
--5>--
--3>--
------


CHORUS (Muere otra vez, muere otra vez,...)

Tocar lo mismo que la guitarra 1 en Intro 2


POST-CHORUS (Se acabo, ya no aguanto más...)

---------------------
---------------------
--14---9-10--5---9---
--12---7-8---3---7---
--12---7-8---3---7---
--12*--7-8*--3*--7*--


SOLO

[Con efectos]

          (x4)
--------------¡----------------------------------------
--------------¡----------------------------------------
--12s14-14-14-¡-14*---13-12-10-12-13-12-10-12-10-------
--------------¡-----------------------------------12>--
--------------¡----------------------------------------
--------------¡----------------------------------------

------------------------------------------------------------
------------------------------------------------------------
--10-10-12-10---14-14-17--14-14-17--14-14>--17-17-17-16-15--
--10-10-12-10-----------------------14-14>------------------
------------------------------------------------------------
------------------------------------------------------------
Suggest correction
Give kudos to tab author, rate the tab!
1 2 3 4 5
comments
print report bad tab
guest
Wanna post a correction for this tab? Suggest correction