Oops, an error
Loading. Please wait.

Cubos Tab

by Sober
67 views 1 this week
no commentswrite comment
1 2 3 4 5
3 more votes to show rating
add to favorites
launch autoscroll
font size
0
reset
how to read this tab
guitar tuner
×
Best way to learn
"Cubos"
Autoscroll
slow
fast
+/-
esc
set tempo
stop
NOTACION

h= hammer on
p= pull off
b= bend
>= mantener el sonido
*= tocar varias veces esa nota o acorde
PM= palm muted (si va seguido de una línea de puntos hacerlo
hasta donde termina la línea de puntos)

------------------------------------------------------------

AFINACION

Dropped D: afina la sexta cuerda de tu guitarra dos semito-
nos menos (de E a D) y las cinco cuerdas restantes déjalas 
en afinación standar

------------------------------------------------------------


INTRO

--------------------------------------
--------------------------------------
--------------------------------------
--3--1--0--0-----------3--1--0--0--0--
--3--1--0--0--x-x-x-x--3--1--0--0--0--
--3--1--0--0--x-x-x-x--3--1--0--0--0--

En un momento dado una segunda guitarra hace esto:

---------
--3------
----2----
------0--
---------
---------


VERSO (Sencillo no lo es...)

Guitarra 1

--------------------------------------
--------------------------------------
--------------------------------------
--3--1--0--0-----------3--1--0--0--0--
--3--1--0--0--0-0-0-0--3--1--0--0--0--
--3--1--0--0--0-0-0-0--3--1--0--0--0--
  PM................................

Guitarra 2

---------------
---------------
---------14b>--
--0b>----------
---------------
---------------


CHORUS (Miro profundo a la pared...)

---------------
---------------
--7---10--14---
--5---8---12---
--5---8---12---
--5*--8*--12*--

POST-CHORUS (Pensamientos se agolpan...)

------------
------------
------------
--1--3--0>--
--1--3--0>--
--1--3--0>--


SOLO

Guitarra 1

----------------------------------------------------------
----------------------------------------------------------
--19b--19b>--19b--19b>------------------------------------
----------------------------19----20---------19----20-----
-------------------------17----17-----17--17----17----17--
----------------------------------------------------------

              (x?)
-¡----------------¡-
-¡----------------¡-
-¡-19h20p19h20p19-¡-
-¡----------------¡-
-¡----------------¡-
-¡----------------¡-

Guitarra 2: tocar lo mismo que en Intro
Suggest correction
Give kudos to tab author, rate the tab!
1 2 3 4 5
comments
print report bad tab
guest
You may want to rate the tab now too:
select rating
Wanna post a correction for this tab? Suggest correction