Oops, an error
Loading. Please wait.

Eternidad Tab

by Sober
118 views 1 this week
no commentswrite comment
1 2 3 4 5
3 more votes to show rating
add to favorites
×
Save as Personal and add changes to this tab that will be seen only by you. Learn more ›
×
You can save this tab as Personal to edit and correct it or add notes. All changes will be seen only by you. Learn more »
save as personal
new!
launch autoscroll
font size
0
reset
how to read this tab
guitar tuner
Autoscroll
slow
fast
+/-
esc
set tempo
stop
----------------------------------------------------------

NOTACION

h= hammer o
b= bend
>= mantener el sonido
*= tocar varias veces esa nota o acorde
Harm.= harmónico (si va seguido de una línea de puntos ha-
cerlo hasta donde termina la línea de puntos)
PM= palm muted (si va seguido de una línea de puntos hacerlo
hasta donde termina la línea de puntos)

------------------------------------------------------------
------------------------------------------------------------

AFINACION

Dropped D: afina la sexta cuerda de tu guitarra dos semito-
nos menos (de E a D) y las cinco cuerdas restantes déjalas 
en afinación standar

------------------------------------------------------------
------------------------------------------------------------


-----
INTRO
-----


Guitarra 1 [Con delay]
----------

-----------------7--------7--------------------
-----8--------8-----8--8--------8--8--------8--
--9-----9--9-----------------9--------9--9-----
-----------------------------------------------
-----------------------------------------------
-----------------------------------------------
  PM.........................................


--------------------7>--------------------------
--------8--------8---------8-----8--8--------8--
--9--9-----9--9---------9-----9--------9--9-----
------------------------------------------------
------------------------------------------------
------------------------------------------------
  PM..............      PM.....................


--8--7h8>--------------------------------
--------------8--8--------8--8--------8--
-----------9--------9--9--------9--9-----
-----------------------------------------
-----------------------------------------
-----------------------------------------
           PM..........................


--8--7h8>---------------------------------
--------------8--8--------8--8--------8>--
-----------9--------9--9--------9--9------
------------------------------------------
------------------------------------------
------------------------------------------
           PM.......................


--------------------7>--------------------------
--------8--------8---------8-----8--8--------8--
--9--9-----9--9---------9-----9--------9--9----- (x2)
------------------------------------------------
------------------------------------------------
------------------------------------------------
  PM..............      PM.....................


--8--7h8>--------------------------------
--------------8--8--------8--8--------8--
-----------9--------9--9--------9--9----- (x2)
-----------------------------------------
-----------------------------------------
-----------------------------------------
           PM..........................


Guitarra 2 [Con efectos] (x2)
----------

-------------------------
-------------------------
------------------------- (x2)
-------------9--9--9--9--
--7--7--7----7--7--7--7--
--7--7--7----7--7--7--7--
  PM.....  

----------------------------
----------------------------
----------------------------
-------------5--7--7--5-----
--3--3--3----3--3--3--3--3--
--3--3--3----3--3--3--3--3-- 
  PM.....

---------------------------
---------------------------
---------------------------
-------------5--7--7--5s9--
--3--3--3----3--3--3--3s7--
--3--3--3----3--3--3--3s7--
  PM.....


-----
VERSO
-----


1) (Tan solitario, descuidado, ...)


Guitarra 1 [Con delay] (x2)
----------

--------------------------------------------------
-----8--8--------8--8--------8--8--------8--8-----
--9--------9--9--------9--9--------9--9--------9-- (x2)
--------------------------------------------------
--------------------------------------------------
--------------------------------------------------
  PM............................................


--8--7h8>--------------------------------
--------------8--8--------8--8--------8--
-----------9--------9--9--------9--9----- (x2)
-----------------------------------------
-----------------------------------------
-----------------------------------------
           PM..........................


Guitarra 2 [Con efectos] (x2)
----------

------------------
------------------
-----9-9-9-9-9-9-- (x2)
-----7-7-7-7-7-7--
--0--7-7-7-7-7-7--
--0--7-7-7-7-7-7--
  PM

------------------
------------------
-----5-5-5-5-5-5-- (x2)
-----3-3-3-3-3-3--
--0--3-3-3-3-3-3--
--0--3-3-3-3-3-3--
  PM


2) (Pues no busques en mí...)


Guitarra 1 [Con delay] (x2)
----------

--10--7h10>--------------------------------------
----------------8--8--------8--8--------8--8-----
-------------9--------9--9--------9--9--------9-- (x2)
-------------------------------------------------
-------------------------------------------------
-------------------------------------------------
             PM................................


--8--7h8>--------------------------------
--------------8--8--------8--8--------8--
-----------9--------9--9--------9--9----- (x2)
-----------------------------------------
-----------------------------------------
-----------------------------------------
           PM..........................


Guitarra 2 [Con efectos]
----------

---------------------------------
---------------------------------
-----9-9-9-9--------------------- (x2)
-----7-7-7-7--7-7-7-7-7-7-7-7-7--
--0--7-7-7-7---------------------
--0--7-7-7-7---------------------
  PM

-----------------------
-----------------------
-----5-5-5-5----------- (x2)
-----3-3-3-3-----------
--0--3-3-3-3-----------
--0--3-3-3-3--3-3-3-3--
  PM          Harm...

---------------------------------
---------------------------------
-----9-9-9-9--------------------- (x2)
-----7-7-7-7--7-7-7-7-7-7-7-7-7--
--0--7-7-7-7---------------------
--0--7-7-7-7---------------------
  PM

-----------------------
-----------------------
-----5-5-5-5----------- 
-----3-3-3-3-----------
--0--3-3-3-3-----------
--0--3-3-3-3--4-4-4-4--
  PM          Harm...

---------------------
---------------------
-----5-5-5-5---------
-----3-3-3-3---------
--0--3-3-3-3---------
--0--3-3-3-3--3-3-3--
  PM          Harm.


3) (No me culpes a mí de tu dolor)


Guitarra 1 [Con delay]
----------

--10>------8>----10>--8>--
-------8>-----------------
--------------------------
--------------------------
--------------------------
--------------------------


-----------------7>-----------7>----------
-----8--------8---------8-------------8>--
--9-----9--9---------9-----9------9>------
------------------------------------------
------------------------------------------
------------------------------------------
  PM...........      PM.....      PM....


Guitarra 2
----------

--------------
--------------
--7>--5>--9>--
--5>--3>--7>--
--5>--3>--7>--
--5>--3>--7>--


------
CHORUS 
------


1) (Ya empiezo a entender...)


---------------------------------
---------------------------------
--12---7---5---x-x--x--5---7s12--
--10---5---3---x-x--x--3---5s10--
--10---5---3---x-x--x--3---5s10--
--10*--5*--3*--x-x--x--3*--5s10--

---------------------------------
---------------------------------
--12---7---5---x-x--x--5---5s9>--
--10---5---3---x-x--x--3---3s7>--
--10---5---3---x-x--x--3---3s7>--
--10*--5*--3*--x-x--x--3*--3s7>--


2)


Guitarra 1 [Con delay]
----------

-----------------7--------7--------------------
-----8--------8-----8--8--------8--8--------8--
--9-----9--9-----------------9--------9--9-----
-----------------------------------------------
-----------------------------------------------
-----------------------------------------------
  PM.........................................


--------------------7>--------------------------
--------8--------8---------8-----8--8--------8--
--9--9-----9--9---------9-----9--------9--9-----
------------------------------------------------
------------------------------------------------
------------------------------------------------
  PM..........................................


--8--8--7h8--7-----
----------------8--
-------------------
-------------------
-------------------
-------------------
  PM.............


-----------
POST-CHORUS
-----------


1) (Camina sin rumbo, donde ir)


-----------------
-----------------
--9--9---7>--5>-- (x3)
--7--7---5>--3>--
--7--7---5>--3>--
--7--7---5>--3>--

------
------
------
------
--3---
--3*--
  PM

------------------
------------------
------------------ (2ª guitarra. Efectos)
------------------
------------------
--3b--3b--3b--3b--


2)


Guitarra 1 [Con efectos]
----------

---------------------------------------------------------
---------------------------------------------------------
---------------------------------------------------------
-----------------------------------------0--0--2---------
--2--2--2---2--2---0--0--0---2s5--5--5-------------3--5--
---------------------------------------------------------

----------------------------------------
----------------------------------------
----------------------------------------
--2--2--2--2--2--2--2--2----------------
--2--2--2--2--2--2--2--2----------------
---------------------------4b--0--2--3--


Guitarra 2
----------

-----------------------------------------------------------
-----------------------------------------------------------
--4-----4---4--4--------2---7-7-7-7---7--7--5--5-----5--5--
--2--2--2---2--2--0--0--0---5-5-5-5---5--5--3--3--3--3--3--
--2--2--2---2--2--0--0--0---5-5-5-5---5--5--3--3--3--3--3--
--2--2--2---2--2--0--0--0---5-5-5-5---5--5--3--3--3--3--3--
     PM           PM..                            PM

------------------
------------------
--4---2---5-------
--2---0---3---3---
--2---0---3---3---
--2*--0*--3*--3*--
              PM


-----
FINAL
-----


Tocar lo mismo que en Intro


------------------------------------------------------------
------------------------------------------------------------
Suggest correction
Give kudos to tab author, rate the tab!
1 2 3 4 5
comments
print report bad tab
guest
Wanna post a correction for this tab? Suggest correction