Oops, an error
Loading. Please wait.

Hijos Del Miedo Tab

by Sober
9 views 1 this week
no commentswrite comment
1 2 3 4 5
3 more votes to show rating
add to favorites
launch autoscroll
font size
0
reset
how to read this tab
guitar tuner
×
Best way to learn
"Hijos Del Miedo"
Autoscroll
slow
fast
+/-
esc
set tempo
stop
NOTACION

h= hammer on
s= slide
>= mantener el sonido
x= apagado de diapasón
()= harmónico
PM= palm muted (si va seguido de una línea de puntos hacerlo
hasta donde termina la línea de puntos)

------------------------------------------------------------
------------------------------------------------------------

AFINACION

Dropped D: afina la sexta cuerda de tu guitarra dos semito-
nos menos (de E a D) y las cinco cuerdas restantes déjalas
en afinación standar

------------------------------------------------------------
------------------------------------------------------------


-----
INTRO (x3)
-----


--------------------------------------
--------------------------------------
--------------------------------------
--------------------------------------
--4--4--4--2--4--4--2--2--4--5--4--2--
--4--4--4--2--4--4--2--2--4--5--4--2--
  PM................................

------------------------------
------------------------------
------------------------------
------------------------------
--4--4--4--2--4--4--2--2--5>--
--4--4--4--2--4--4--2--2--5>--
  PM....................


-----
VERSO (Mis ojos sangran, creo morir, dentro de mí...) 
-----


--------------------------
-----------(4)------------
----------------(4)------- (x7)
---------------------(4)--
--4--2--4-----------------
--4--2--4-----------------
  PM.....

------------------
------------------
------------------
------------------
--4--2--4---------
--4--2--4--0s9s0--
  PM..


------
CHORUS
------


1) (En mi mente solo cabe la razón...)


-----------------------------------------
-----------------------------------------
----------------------------------------- (x2)
--4--4--2--5--5--4--0--0--0--4--2--2--2--
--4--4--2--5--5--4--0--0--0--4--2--2--2--
--4--4--2--5--5--4--0--0--0--4--2--2--2--


2) (Ante esas situaciones de odio y de dolor...)


-----------------------------------------------------
-----------------------------------------------------
----------------------------------------------------- (x2)
--4--4--4--2--2--2--2--2--0--0--0--0--2--2--2--2--2--
--4--4--4--2--2--2--2--2--0--0--0--0--2--2--2--2--2--
--4--4--4--2--2--2--2--2--0--0--0--0--2--2--2--2--2--


-----------
POST-CHORUS
-----------


1)


------------------------
------------------------
------------------------ (x4)
--4--2--5--4s8--8--8s4--
--4--2--5--4s8--8--8s4--
--4--2--5--4s8--8--8s4--


2)


--------------------------------------------------
--------------------------------------------------
-------------------------------------------------- (x8)
--------------------------------------------------
--4--4--4--2--2--2--5--5--4--4--4--4--8--8--8--8--
--4--4--4--2--2--2--5--5--4--4--4--4--8--8--8--8--
  PM............................................


3)


-----------------------
-----------------------
----------------------- (x4)
--4--2--4--x--x--x--5--
--4--2--4--x--x--x--5--
--4--2--4--x--x--x--5--


4)


Guitarra 1 [Con efectos]
----------

--------------14--
------14--13------
--11-------------- (x4)
------------------
------------------
------------------


Guitarra 2
----------

-----------------------
-----------------------
----------------------- (x4)
--4--2--4--x--x--x--5--
--4--2--4--x--x--x--5--
--4--2--4--x--x--x--5--

-----------------------------
-----------------------------
----------------------------- (x4)
--4--2--x--x--x--x--x--x--5--
--4--2--x--x--x--x--x--x--5--
--4--2--x--x--x--x--x--x--5--


-----
FINAL
-----


1)


-------------------------------------------------------
-------------------------------------------------------
------------------------------------------------------- (x2)
--4--4--2h4--2--5--5--5--5--0--0--0--0--4--2--2--2--0--
--4--4--2h4--2--5--5--5--5--0--0--0--0--4--2--2--2--0--
--4--4--2h4--2--5--5--5--5--0--0--0--0--4--2--2--2--0--


2) (oh, oh, oh, oh, ...)


--------------------------------------------------
--------------------------------------------------
--------------------------------------------------
--4--4--4--4--2--2--2--2--0--0--0--0--2--2--2--2--
--4--4--4--4--2--2--2--2--0--0--0--0--2--2--2--2--
--4--4--4--4--2--2--2--2--0--0--0--0--2--2--2--2--

-----------------------------------------------------------
-----------------------------------------------------------
-----------------------------------------------------------
--4--4--4--4--0--2--2--2--2--0--0--0--0--0--0--2--2--2--2--
--4--4--4--4--0--2--2--2--2--0--0--0--0--0--0--2--2--2--2--
--4--4--4--4--0--2--2--2--2--0--0--0--0--0--0--2--2--2--2--

---------
---------
---------
-----6>--
--0--4>--
--0--4>--
--0--4>--
  PM


------------------------------------------------------------
------------------------------------------------------------
Suggest correction
Give kudos to tab author, rate the tab!
1 2 3 4 5
comments
print report bad tab
guest
You may want to rate the tab now too:
select rating
Wanna post a correction for this tab? Suggest correction