Oops, an error
Loading. Please wait.

Mis Cenizas Tab

76 views 1 this week
no commentswrite comment
1 2 3 4 5
3 more votes to show rating
add to favorites
launch autoscroll
font size
0
reset
how to read this tab
guitar tuner
×
Best way to learn
"Mis Cenizas"
Autoscroll
slow
fast
+/-
esc
set tempo
stop
h= Hammer on
p= Pull Off
b= Bend
s= Slide
*= Tocar varias veces esa nota o acorde
PM= Palm Muted (si va seguido de una línea de puntos hacerlo
    hasta donde termina la línea de puntos)


------------------------------------------------------------

AFINACION

Dropped D: afinar la sexta cuerda de la guitarra dos semito-
nos menos, las cinco restantes déjarlas en afinacion standar.
------------------------------------------------------------


INTRO

------------------------
------------------------
------------------------
---35555----1-11-33-----
---35555----1-11-33-----
---35555----1-11-33-----  (x3)


-------------
-------------
-------------
35555----1---
35555----1---
35555----1---


VERSO

1. (Odio al mundo por dejar...)

Todo esto tres veces

   -con efectos-

-----------------
-----------------
-----------------
----------19-----
-17-17-17--------
----------------- (x3)


-----------------
-----------------
-----------------
----------17-----
-15-15-15--------
----------------- (x3)


2. (Pero hay algo que tu puedes hacer...)


---------------------------
---------------------------
---------------------------
-1---0---1---33333---------
-1---0---1---33333---------
-1---0---1---33333---------
           PM.....


3.  (Debemos resujir, de las cenizas...)


------------------------
------------------------
------------------------
---35555----1-11-33-----
---35555----1-11-33-----
---35555----1-11-33-----  (x3)


-------------
-------------
-------------
35555----1---
35555----1---
35555----1---


4. (Me desborda la emocion al creer que no es mentira...)

Todo esto tres veces

   -con efectos-

-----------------
-----------------
-----------------
----------19-----
-17-17-17--------
----------------- (x3)


-----------------
-----------------
-----------------
----------17-----
-15-15-15--------
----------------- (x3)


5. (Pero hay algo que tu puedes hacer...)


---------------------------
---------------------------
---------------------------
-1---0---1---33333---------
-1---0---1---33333---------
-1---0---1---33333---------
           PM.....


6.  (Debemos resujir, de las cenizas...)


------------------------
------------------------
------------------------
---35555----1-11-33-----
---35555----1-11-33-----
---35555----1-11-33-----  (x3)


-------------
-------------
-------------
35555----1---
35555----1---
35555----1---


------------------
------------------
------------------
--5-5---8-7---1---
--5-5---8-7---1---
--5-5---8-7---1---


------------------
------------------
------------------
--5-5---8-7---3---
--5-5---8-7---3---
--5-5---8-7---3---


------------------
------------------
------------------
--5-5---8-7---1---
--5-5---8-7---1---
--5-5---8-7---1---


---------------------------
---------------------------
---------------------------
--5-5---7-8---3-3--3-3--3-3
--5-5---7-8---3-3--3-3--3-3
--5-5---7-8---3-3--3-3--3-3


7.  (Debemos resujir, de las cenizas...)

 -Efecto distorsion en Off-

-----------------------------------
-----------------------------------
-----------------------------------
------7---------3-----5----------7-
----5---------1-----3----------5---
--5---------1-----3----------5-----


-----------
-----------
-----------
-1-1--3-3--
-1-1--3-3--
-1-1--3-3--


8.  (Debemos resujir, de las cenizas...)


------------------------
------------------------
------------------------
---35555----1-11-33-----
---35555----1-11-33-----
---35555----1-11-33-----  (x3)


-------------
-------------
-------------
35555----1---
35555----1---
35555----1---


   -solo guitarra-


----------------------------------------------------------------------------
----------------------------------------------------------------------------
--------------------------------------------------------------------7b------
-----------15h17-----------15h17----------15h17----------15h17---8----------
---15--17----------15--17---------15--17---------15--17---------------------
---------------------------------------------------------------------------- (x2)


------------------19b-19b-15-17-19-17-15-17/19--19p21b-19p21b-19p21b-19p21b-21-19-21b--
--19b-19b-19b-19b----------------------------------------------------------------------
---------------------------------------------------------------------------------------
---------------------------------------------------------------------------------------
---------------------------------------------------------------------------------------
---------------------------------------------------------------------------------------


------------------------
------------------------
------------------------
---35555----1-11-33-----
---35555----1-11-33-----
---35555----1-11-33-----  (x)


-------------
-------------
-------------
35555----1---
35555----1---
35555----1---
Suggest correction
Give kudos to tab author, rate the tab!
1 2 3 4 5
comments
print report bad tab
guest
You may want to rate the tab now too:
select rating
Wanna post a correction for this tab? Suggest correction