Oops, an error
Loading. Please wait.

Nos Hizo De Menos Tab

13 views 3 this week
no commentswrite comment
1 2 3 4 5
3 more votes to show rating
add to favorites
launch autoscroll
font size
0
reset
how to read this tab
guitar tuner
×
Best way to learn
"Nos Hizo De Menos"
Autoscroll
slow
fast
+/-
esc
set tempo
stop
NOTACION

h= hammer on
p= pull off
>= mantener el sonido
PM= palm muted (si va seguido de una línea de puntos hacerlo
hasta donde termina la línea de puntos)

------------------------------------------------------------
------------------------------------------------------------

AFINACION

Dropped D: afina la sexta cuerda de tu guitarra dos semito-
nos menos (de E a D) y las cinco cuerdas restantes déjalas
en afinación standar

------------------------------------------------------------
------------------------------------------------------------


-----
INTRO
-----


1)


-----------------------------
-----------------------------
--------7--------------7----- (x4)
-----7-----7--------6-----6--
--5--------------6-----------
--------------6--------------

------
------
--7>--
--7>--
--5>--
------


2)


--------------------------------------
--------------------------------------
-----7-----7--7--------7-----7-----7-- (x2)
--7--7-----7--7--------7-----7-----7--
--5-----6--------0--5-----5-----5-----
--------6--------0--5-----5-----5-----


-----
VERSO 
-----


1) (Dejemos hablar al viento que nos susurra...)


--------------------------------------
--------------------------------------
-----7-----7--7--------7-----7-----7-- (x4)
--7--7-----7--7--------7-----7-----7--
--5-----6--------0--5-----5-----5-----
--------6--------0--5-----5-----5-----


2) (Sufrimientos que ayer intentamos odiar...)


--------------------------------------
--------------------------------------
--7--7--7--7--7--7--7--7--7--7--7--7-- (x3)
--7--7--7--7--7--7--7--7--7--7--7--7--
--5-----6--------0--5-----5-----5-----
--0-----6--------0--5-----5-----5-----

--------------------------------------------
--------------------------------------------
--7--7--7--7--7--7--------------------------
--7--7--7--7--7--7--5--5--5--5--5--5--5--5--
--5-----6--------0--5--5--5--5--5--5--5--5--
--0-----6--------0--5--5--5--5--5--5--5--5--
                    PM....................


------
CHORUS (Creer para qué, cansados de ver...)
------


------------------------------
------------------------------
------------------------------ (x4)
--0--0--3p0--0--6--6--6--0h6--
--0--0--3p0--0--6--6--6--0h6--
--0--0--3p0--0--6--6--6--0h6--


-----------
POST-CHORUS
-----------


1) (Ah, ah, ah, tu padre y tu madre nos quisieron dar...) (x3)


--------------------------
--------------------------
--------------5-----5----- (x2)
--------------3-----3-----
--3--3--3--3-----3-----3--
--3--3--3--3-----3-----3--

--------------------------
--------------------------
-----------------4-----4-- (x2)
-----------------2-----2--
--2--2--2--2--2-----2-----
--2--2--2--2--2-----2-----

-----------------------
-----------------------
--------5-----5-----5-- (x2)
--------3-----3-----3--
--3--3-----3-----3-----
--3--3-----3-----3-----

--------------
--------------
--8--8--7--4--
--6--6--5--2--
--6--6--5--2--
--6--6--5--2--


2) [Con efectos]


-----------------------
-----------------------
-----------5--5--5--5-- (x4)
-----------3--3--3--3--
--3--3--3--3--3--3--3--
--3--3--3--3--3--3--3--
  PM.....

-----------------------
-----------------------
-----------8--8--8--8-- (x4)
-----------6--6--6--6--
--6--6--6--6--6--6--6--
--6--6--6--6--6--6--6--
  PM.....

-----------------------
-----------------------
-----------5--5--5--5-- (x4)
-----------3--3--3--3--
--3--3--3--3--3--3--3--
--3--3--3--3--3--3--3--
  PM.....

-----------------------
-----------------------
-----------8--8--8--8-- (x2)
-----------6--6--6--6--
--6--6--6--6--6--6--6--
--6--6--6--6--6--6--6--
  PM.....

--------------------------------------------------
--8--8--8--8--8--8--8--8--8--8--8--8--8--8--8--8--
--8--8--8--8--8--8--8--8--8--8--8--8--8--8--8--8--
--6--6--6--6--6--6--6--6--6--6--6--6--6--6--6--6--
--6--6--6--6--6--6--6--6--6--6--6--6--6--6--6--6--
--6--6--6--6--6--6--6--6--6--6--6--6--6--6--6--6--


-----
FINAL (uoaaaaaaaah, uoaaaaaaaah,...) (x4)
-----


-----------------------------------
-----------------------------------
-----------------------------------
--0--0--0--0--0--0--3--3--3--0--3--
--0--0--0--0--0--0--3--3--3--0--3--
--0--0--0--0--0--0--3--3--3--0--3--

-----------------------------------
-----------------------------------
-----------------------------------
--0--0--0--0--0--0--6--6--6--0--6--
--0--0--0--0--0--0--6--6--6--0--6--
--0--0--0--0--0--0--6--6--6--0--6--


------------------------------------------------------------
------------------------------------------------------------
Suggest correction
Give kudos to tab author, rate the tab!
1 2 3 4 5
comments
print report bad tab
guest
You may want to rate the tab now too:
select rating
Wanna post a correction for this tab? Suggest correction