Oops, an error
Loading. Please wait.

Predicador Tab

38 views 1 this week
no commentswrite comment
1 2 3 4 5
3 more votes to show rating
add to favorites
launch autoscroll
font size
0
reset
how to read this tab
guitar tuner
×
Best way to learn
"Predicador"
Autoscroll
slow
fast
+/-
esc
set tempo
stop
NOTACION

s= slide
>=mantener el sonido
*= tocar varias veces esa nota o acorde
PM= palm muted (si va seguido de una línea de puntos hacerlo
hasta donde termina la línea de puntos)

------------------------------------------------------------
AFINACION

Dropped D: afina la sexta cuerda de tu guitarra dos semito-
nos menos (de E a D) y las cinco cuerdas restantes déjalas
en afinación standar

------------------------------------------------------------


INTRO

1)

[Con efectos]

--------------------------------------------------------
--------------------------------------------------------
--14--14-14--14--14-14--14--14----9--9-9--9--9-9--9--9--
---0----------0----------0--------0-------0-------0-----
--------------------------------------------------------
--------------------------------------------------------

--------------------------------------------------------
--------------------------------------------------------
--10--10-10--10--10-10--10--10----9--9-9--9--9-9--9--7--
---0----------0----------0--------0-------0-------0--0--
--------------------------------------------------------
--------------------------------------------------------

2)

Guitarra 1

------------------------------------------------------------
------------------------------------------------------------
--14--14-14--14--14-14--14--14----9--9-9--9--9-9--9--9--12--
---0----------0----------0--------0-------0-------0-----10*-
------------------------------------------------------------
------------------------------------------------------------

Guitarra 2

-----------------------
-----------------------
--10>------10s12--12>--
--8>---0>---------10>--
--8>---0>---8s10--10>--
--8>---0>---------10>--

3)

                  xxxxxxxxxxxxxxx
-----------------¡---------------¡--
-----------------¡---------------¡--
-----------------¡---------------¡--
--0-0--5s8--8--0-¡-0-3-0--3s7--7-¡--
--0-0--5s8--8--0-¡-0-3-0--3s7--7-¡--
--0-0--5s8--8--0-¡-0-3-0--3s7--7-¡--

La segunda vez que toques este riff en vez de tocar lo que
pone en la zona marcada con 'x' toca esto:

--------
--------
--------
--3--1--
--3--1--
--3--1--


VERSO

1) (Las ropas negras que...)

---------------------------------------
---------------------------------------
---------------------------------------
--1--1--1--1--1--1---0--0--0--0--0--0--
--1--1--1--1--1--1---0--0--0--0--0--0--
--1--1--1--1--1--1---0--0--0--0--0--0--

2) (El porqué del dolor...)

            (x4)            (x4)
----------------¡---------------¡--
----------------¡---------------¡--
----------------¡---------------¡--
--1-1-----1-----¡-0-0-----0-----¡--
--1-1--1--1--1--¡-0-0--0--0--0--¡--
--1-1--1--1--1--¡-0-0--0--0--0--¡--
       PM    PM        PM    PM


CHORUS (Rasgué mis ropas y...)

-----------------------
-----------------------
--10-------10s12--12---
---8---0----------10---
---8---0----8s10--10---
---8*--0*---0-----10*--


FINAL (Tu misión, tu misión,...)

Guitarra 1: tocar lo mismo que en Intro 3

Guitarra 2

--------------------------------------------------------
----10----10--------10----10--------10----10--------10--
--7-----7-----7---6-----6-----6---5-----5-----5---6-----
--------------------------------------------------------
--------------------------------------------------------
--------------------------------------------------------

-----------
----10-----
--6-----6--
-----------
-----------
-----------
Suggest correction
Give kudos to tab author, rate the tab!
1 2 3 4 5
comments
print report bad tab
guest
You may want to rate the tab now too:
select rating
Wanna post a correction for this tab? Suggest correction