Oops, an error
Loading. Please wait.

Siervo De Su Esclavitud Tab

10 views 1 this week
no commentswrite comment
1 2 3 4 5
3 more votes to show rating
add to favorites
launch autoscroll
font size
0
reset
how to read this tab
guitar tuner
Autoscroll
slow
fast
+/-
esc
set tempo
stop
Help us to improve Ultimate-Guitar.com Take our survey!
×
NOTACION

p= pull off
x= apagado de diapasón
PM= palm muted (si va seguido de una línea de puntos hacerlo
hasta donde termina la línea de puntos)

------------------------------------------------------------
------------------------------------------------------------

AFINACION

Dropped D: afina la sexta cuerda de tu guitarra dos semito-
nos menos (de E a D) y las cinco cuerdas restantes déjalas
en afinación standar

------------------------------------------------------------
------------------------------------------------------------


-----
INTRO
-----


Guitarra 1 [Con efectos] (x2)
----------

---------------------------------------------------
--10-10-10-10-10-10-10-10-10-10-10-10-10-10-10-10--
--10-10-10-10-10-10-10-10-10-10-10-10-10-10-10-10--
---------------------------------------------------
---------------------------------------------------
---------------------------------------------------

---------------------------------------------------
---9--9--9--9--9--9--9--9--9--9--9--9--9--9--9--9--
--10-10-10-10-10-10-10-10-10-10-10-10-10-10-10-10--
---------------------------------------------------
---------------------------------------------------
---------------------------------------------------

--------------------------------------------------
--9--9--9--9--9--9--9--9--9--9--9--9--9--9--9--9--
--9--9--9--9--9--9--9--9--9--9--9--9--9--9--9--9--
--------------------------------------------------
--------------------------------------------------
--------------------------------------------------

--------------------------------------------------
--8--8--8--8--8--8--8--8--8--8--8--8--8--8--8--8--
--9--9--9--9--9--9--9--9--9--9--9--9--9--9--9--9--
--------------------------------------------------
--------------------------------------------------
--------------------------------------------------


Guitarra 2
----------

-----------------------------------
-----------------------------------
----------------------------------- (x4)
-----------------------------------
--0--0--0--0--5--6--0--0--0--3--5--
--0--0--0--0--5--6--0--0--0--3--5--
  PM.............................


-----
VERSO (Libre de creer que vendrá a luchar por ti...)
-----


Tocar lo mismo que la guitarra 2 en Intro


------
CHORUS (...puso pega en su caminar) (x3)
------

----------------------------
----------------------------
-------------5-----7-----8-- (x3)
--0----------3--0--5--0--6--
--0--5p0-----3--0--5--0--6--
--0-------0--3--0--5--0--6--

----------------------------------
----------------------------------
-------------5-----7--------------
--0----------3--0--5--x--x--x--x--
--0--5p0-----3--0--5--x--x--x--x--
--0-------0--3--0--5--x--x--x--x--


--------
CHORUS 2
--------


1) (...se te cruza tras tu mirar)


Tocar lo mismo que en Chorus 1


2) (¡Quiero romper!, ¡quiero cortar!)


--------------------------------------
--------------------------------------
-----5--7--8-----------------5--7--8--
--0--3--5--6--x--x--x--x--0--3--5--6--
--0--3--5--6--x--x--x--x--0--3--5--6--
--0--3--5--6--x--x--x--x--0--3--5--6--


3) (Vuelo hacia la nada, debo ir...)


----------------------------------------------------------
----------------------------------------------------------
-------------10-10-10-10-----14-14-14-----12-12-12-12-12-- (x4)
--0-----------8--8--8--8--0--12-12-12--0--10-10-10-10-10--
--0--5p0------8--8--8--8--0--12-12-12--0--10-10-10-10-10--
--0-------0---8--8--8--8--0--12-12-12--0--10-10-12-12-12--


-----------
POST-CHORUS
-----------


[Arpegios en este acorde: (087058)]

--------------------------------8-----
-----------------------------------5--
--------------0----------------------- (x6)
--------7--------7--------7-----------
-----8-----8-----------8-----8--------
--0-----------------0-----------------


[Arpegios en este acorde: (087060]

-----------------------0--------0-----------
--------------6-----------6--------6--------
-----------------0-----------0--------0-----
--------7--------------------------------7--
-----8-----8--------------------------------
--0-----------------0-----------------------


------------------------------------------------------------
------------------------------------------------------------
Suggest correction
Give kudos to tab author, rate the tab!
1 2 3 4 5
comments
print report bad tab
guest
You may want to rate the tab now too:
select rating
Wanna post a correction for this tab? Suggest correction