Oops, an error
Loading. Please wait.

Chico Tab

76 views 3 this week
no commentswrite comment
1 2 3 4 5
3 more votes to show rating
add to favorites
launch autoscroll
font size
0
reset
how to read this tab
guitar tuner
×
Best way to learn
"Chico"
Autoscroll
slow
fast
+/-
esc
set tempo
stop
INTRO

E -----------------------------------------
B -----------------------------------------
G -----------------------------------------
D ----7---------7---------7---------9-10-9-
A ----5-5-5-5-5-5-5-5-5-5-5-5-5-5-5-7-8--7-
E -----------------------------------------

E -----------------------------------------
B -----------------------------------------
G -----------------------------------------
D ----7---------7---------7---------5-3-2--
A ----5-5-5-5-5-5-5-5-5-5-5-5-5-5-5-3-1-0--
E -----------------------------------------

Se repite eso tres veces, la cuarta varía un poco

E -----------------------------------------
B -----------------------------------------
G -----------------------------------------
D ----7---------7---------7---------9-10-9-
A ----5-5-5-5-5-5-5-5-5-5-5-5-5-5-5-7-8--7-
E -----------------------------------------

E ----------------------------------------------
B ----------------------------------------------
G ----------------------------------------------
D ----7---------7---------7---------5-3-2-7~~---
A ----5-5-5-5-5-5-5-5-5-5-5-5-5-5-5-3-1-0-5~~---
E ----------------------------------------------

Ahora viene   RIFF 1

1ª guitarra

E ----------------------------------------------
B ----------------------------------------------
G ----------------------------------------------
D --5-3-2--------5-3-2-------2~~----------------
A --3-1-0-5-3-5--3-1-0-5-3-5-0~~----------------
E --------3-1-3--------3-1-3--------------------

2ª guitarra (a la vez)

E ----------------------------------------------
B ----------------------------------------------
G ----------------------------------------------
D ---------------5-3-2-------2~~----------------
A ---------------------5-3-5--------------------
E ----------------------------------------------


VERSO

Huyes de mi, te alejas de aquí, tranquilo amigo pues no voy por tí
Escuchas rock, y dices no!, si no das dinero no habrá promoción

E ----------------------------------------------
B ----------------------------------------------
G ----------------------------------------------
D -7-------------7--------------10--5-----------
A -5-5-5-5-5-5-5-5-5-5-5-5-5-5--8---3---5---7---
E --------------------------------------3---5---

Eso durante cada verso


ESTRIBILLO


Chico, cambia, el rock no te dará, para viviiiir!!

1ª guitarra

E -----------------------------------------------------
B -----------------------------------------------------
G -----------------------------------------------------
D --10--------10---------12-------------12-------------
A --8-8-8-8-8-8--8-8-8-8-10-10-10-10-10-10-10-10-10-10-
E -----------------------------------------------------   x2

E ----------------------------------------------
B ----------------------------------------------
G ----------------------------------------------
D --7-7--12-10~~-------7-7--12-10~~-------------
A --5-5--10-8~~--------5-5--10-8~~--------------
E ----------------------------------------------

2ª guitarra

E ------------------------------------------------
B ------------------------------------------------
G ---4/7~-7-5-7-7/9~-9-7-9-9/10~-10-9-10-10/12~~--
D ------------------------------------------------
A ------------------------------------------------
E ------------------------------------------------

E --------------------------------------------------------
B --------------------------------------------------------
G ---17b19-19r17p15---17b19-19r17p15---17b19-19r17p15-----
D --------------------------------------------------------
A --------------------------------------------------------
E --------------------------------------------------------


Olvida tus sueños y create un porveniiiir

1ª guitarra

E -----------------------------------------------------
B -----------------------------------------------------
G -----------------------------------------------------
D --10--------10---------12-------------12-------------
A --8-8-8-8-8-8--8-8-8-8-10-10-10-10-10-10-10-10-10-10-
E -----------------------------------------------------   x2

E ----------------------------------------------
B ----------------------------------------------
G ----------------------------------------------
D --7-7--12-10~~-------7-7--12-10~~-------------
A --5-5--10-8~~--------5-5--10-8~~--------------
E ----------------------------------------------

2ª guitarra

E ------------------------------------------------
B ------------------------------------------------
G ------------------------------------------------
D ------------------------------------------------
A ---1/5~-5-3-5-5/7~-7-5-7-7/8~-8-7-8-8/10~~------
E ------------------------------------------------

E --------------------------------------------------------
B --------------------------------------------------------
G ---17b19-19r17p15---17b19-19r17p15---17b19-19r17p15-----
D --------------------------------------------------------
A --------------------------------------------------------
E --------------------------------------------------------


Ahora viene  RIFF 2

1ª guitarra

E ----------------------------------------------
B ----------------------------------------------
G ----------------------------------------------
D --5-3-2--------5-3-2--------------------------
A --3-1-0-5-3-5--3-1-0-5-3-5--------------------
E --------3-1-3--------3-1-3--------------------

2ª guitarra (a la vez)

E ----------------------------------------------
B ----------------------------------------------
G ----------------------------------------------
D ---------------5-3-2--------------------------
A ---------------------5-3-5--------------------
E ----------------------------------------------


VERSO

Algo no funciona, otro tropezón, es duro el camino y prometo seguir!
Otro escalón, alguna emoción, nunca entenderías la sangre del rock!


ESTRIBILLO


RIFF 1


SOLO

E --------------------------------------------------
B --3h5h6-3h5h6-3h5h6-3h5h6-5h6h8-5h6h8-5h6h8-5h6h8-
G --------------------------------------------------
D --------------------------------------------------
A --------------------------------------------------
E --------------------------------------------------

E ----------------------------------------------
B --6h8h10-6h8h10-6h8h10-6h8h10-11-10-8-6-5-6---
G ----------------------------------------------
D ----------------------------------------------
A ----------------------------------------------
E ----------------------------------------------

Eso se repite dos veces


Guitarra rítmica durante el solo

E -----------------------------------------------
B -----------------------------------------------
G -----------------------------------------------
D ----7---------7---------7---------5-3-2--------
A ----5-5-5-5-5-5-5-5-5-5-5-5-5-5-5-3-1-0-5-3-5--
E ----------------------------------------3-1-3--

También dos veces


RIFF 2


ESTRIBILLO


RIFF 2


VERSO

Seguiré luchando, no veo por qué no, pues veo a mi gente está ante mi
No quiero consejos de alguien como tú,
pues oigo a mi gente gritar rock and roll!


ESTRIBILLO x2


RIFF 1


OUTRO

E -----------------------------------------
B -----------------------------------------
G -----------------------------------------
D ----7---------7---------7---------9-10-9-
A ----5-5-5-5-5-5-5-5-5-5-5-5-5-5-5-7-8--7-
E -----------------------------------------

E -----------------------------------------
B -----------------------------------------
G -----------------------------------------
D ----7---------7---------7---------5-3-2--
A ----5-5-5-5-5-5-5-5-5-5-5-5-5-5-5-3-1-0--
E -----------------------------------------

E -----------------------------------------
B -----------------------------------------
G -----------------------------------------
D ----7---------7---------7---------9-10-9-
A ----5-5-5-5-5-5-5-5-5-5-5-5-5-5-5-7-8--7-
E -----------------------------------------

E ------------------------------------------
B ------------------------------------------
G ------------------------------------------
D ----7---------7---------7---------5-3-2-7-
A ----5-5-5-5-5-5-5-5-5-5-5-5-5-5-5-3-1-0-5-
E ------------------------------------------


Dudas o mejoras, fergona@
Suggest correction
Give kudos to tab author, rate the tab!
1 2 3 4 5
comments
print report bad tab
guest
You may want to rate the tab now too:
select rating
Wanna post a correction for this tab? Suggest correction