Oops, an error
Loading. Please wait.

Dinero, Mujeres Y Rock Tab

39 views 1 this week
no commentswrite comment
1 2 3 4 5
3 more votes to show rating
add to favorites
launch autoscroll
font size
0
reset
how to read this tab
guitar tuner
×
Best way to learn
"Dinero, Mujeres Y Rock"
Autoscroll
slow
fast
+/-
esc
set tempo
stop
INTRO

|---------------------------------------------------------------------|
|---------------------------------------------------------------------|
|---------------------------------------------------------------------|
|--------------2~~-------------4~~-------------2~~----------------4~~-|
|--------------0~~-------------2~~-------------0~~----------------2~~-|
|----2-2-2-2-2-------2-2-2-2-2-------2-2-2-2-2-------2-2-2-2-2--------|


|---------------------------------------------------------------------|
|---------------------------------------------------------------------|
|---------------------------------------------------------------------|
|------------2-4~~-----------2~-------------4~----------2-4~~---------|
|------------0-2~~-----------0~-------------2~----------0-2~~---------|
|----2-2-2-2-------2-2-2-2-2-----2-2-2-2-2------2-2-2-2---------------|


|-------------------------------------------------|
|-------------------------------------------------|
|-------------------------------------------------|
|--------------2~~-------------4~~----------------|
|--------------0~~-------------2~~-------------2--|
|----2-2-2-2-2-------2-2-2-2-2-----------------0--|


VERSO


|-----------------------------------------------|
|-----------------------------------------------|
|-----------------------------------------------|
|------------2-4~~-----------2~-------------4~--|
|------------0-2~~-----------0~-------------2~--|
|----2-2-2-2-------2-2-2-2-2-----2-2-2-2-2------|


Mi vida, es como una ruleta
gira, y da muchas vueltas
juego mis dados, lo llevo muy claro
aposté todo o nada por el rock, y mi vida cambió


PRE-ESTRIBILLO


|-----------------------------------------------|
|-----------------------------------------------|
|-----------------------------------------------|
|----------2---------2-4-----6-6--6~------------|
|----2--4--0---------0-2--4--4-4--4~------------|
|----0--2----2-2-2-2------2---------------------|

El rey de oros es mi amigo, la sota de copas se lo hace conmigo!!


ESTRIBILLO


|-----------------------------------------------|
|-----------------------------------------------|
|-----------------------------------------------|
|--------2--4-----4--2~---------2--4------------|
|--2--4--0--2--4--2--0~---2--4--0--2--4---------|
|--0--2--------2----------0--2--------2---------|


Dinero, mujeres y rock, dinero, mujeres y rock

(este estribillo acaba cortado, los posteriores serán un poco diferentes)


VERSO


Un poker de ases vigila mi espalda
rubias morenas diamantes.. siempre me acompañan


PRE-ESTRIBILLO


ESTRIBILLO


(Este estribillo es básicamente igual que el anterior, solo que
como he dicho antes no se corta)
(en la última frase hace esto)

|------------------------|
|------------------------|
|------------------------|
|--------2--4--4---------|
|--2--4--0--2--2~~-------|
|--0--2------------------|

Dinero, mujeres y roooooock!


AHORA VIENE EL SOLO QUE NO HE SACADO


ESTRIBILLO (cortado al final otra vez)


VERSO

Espadas, reinas y damas, encuentro siempre en mi cama
A vida o muerte del caballo pasé, y mi futuro cambié


PRE-ESTRIBILLO


ESTRIBILLO (En la última frase vuelve a hacer lo mismo de antes)


OUTRO


|------------------------|
|------------------------|
|------------------------|
|--------2--4------------|
|--2--4--0--2--2--4------|
|--0--2--------0--2------|


Si tenéis dudas o el solo, fergona@
Suggest correction
Give kudos to tab author, rate the tab!
1 2 3 4 5
comments
print report bad tab
guest
You may want to rate the tab now too:
select rating
Wanna post a correction for this tab? Suggest correction