Oops, an error
Loading. Please wait.

Dinosaurio Tab

18 views 1 this week
no commentswrite comment
1 2 3 4 5
3 more votes to show rating
add to favorites
launch autoscroll
font size
0
reset
how to read this tab
guitar tuner
×
Best way to learn
"Dinosaurio"
Autoscroll
slow
fast
+/-
esc
set tempo
stop
INTRO


|-----------------------------------------------------------------|
|-----------------------------------------------------------------|
|-----------------------------------------------------------------|
|----------------------------7----------------------------9-------|
|----------------------------5----------------------------7-------|
|--2--2-2-2--2-2-2--2-2-2-2-----2--2-2-2--2-2-2--2-2-2-2----------|
   .  . . .  . . .  . . . .     .  . . .  . . .  . . . .

|---------------------------------------------|
|---------------------------------------------|
|---------------------------------------------|
|---------------------------------------------|
|--------------------------------2-0----------|
|--2--2-2-2--2-2-2--2-2-2-2--0-2-----2-0------|
   .  . . .  . . .  . . . .


(Esto se repite cuatro veces, terminando la última con un Fa# prolongado)


VERSO


|---------------------------------------------------------|
|---------------------------------------------------------|
|---------------------------------------------------------|
|-----11-----7------4-------------------------------------|
|-----9------5------2-------------------------------------|
|------------------------------2--2-2-2--2-2-2--2-2-2-----|

A pesar de que muchos creían, que tus sucias mentiras me podrían matar

|----------------------------------------------------------------------|
|----------------------------------------------------------------------|
|----------------------------------------------------------------------|
|-----11------------7-----------9-9/0----------------------------------|
|-----9---9-11-12---5---5-7-9---7-7/0----------------------------------|
|----------------------------------------2--2-2-2--2-2-2--2-2-2--------|

Aunque alguien dijera algún día, que no tardarían en extinguirte..

|----------------------------------------------------------------------|
|----------------------------------------------------------------------|
|----------------------------------------------------------------------|
|-----7~~----9~~-------------------------------------------------------|
|-----5~~----7~~-------------------------------------------------------|
|--------------------2--2-2-2--2-2-2--2-2-2----------------------------|

Tu recuerdo vivía en mi cabezaaaa...

|----------------------------------------------------------------------|
|----------------------------------------------------------------------|
|----------------------------------------------------------------------|
|-----7~~----4~~-------------------------------------------------------|
|-----5~~----2~~--------6-6-6-6-6-6-6-6-6------------------------------|
|-----------------------4-4-4-4-4-4-4-4-4------------------------------|

Y toda su fuerza explotaba en mi corazóon..


ESTRIBILLO


|----------------------------------------------------------------------|
|----------------------------------------------------------------------|
|----------------------------------------------------------------------|
|----------------------------------------2---2-------------------------|
|-------2-0------------------------------0---4-------------------------|
|---0-2-----0---2--2-2-2--2-2-2--2-2-2---------------------------------|

Dinosaurio del rock, vuelve!!   (x2)

|----------------------------------------------------------------------|
|----------------------------------------------------------------------|
|----------------------------------------------------------------------|
|----------------------------------------2---2-------7~~---------------|
|-------2-0------------------------------0---4-------5~~---------------|
|---0-2-----0---2--2-2-2--2-2-2--2-2-2---------------------------------|

Dinosaurio del rock, vuelve!!


|----------------------------------------------------------------------|
|------5-2-------------------------------------------------------------|
|----------4-2---------------------------------------------------------|
|--------------4-2----------------------7~~--9~~-----------------------|
|------------------4-2-------2--4-------5~~--7~~-----------------------|
|----------------------5-2---0--2--------------------------------------|

No me dejes sólo... vuelve, dinosaurio del rock hasta mi...


INTRO


VERSO

Una sombra se acerca en la noche,y sus garras de acero,
 nos hacen temblar
De rodillas callad, falsos profetas, aplastando y rompiendo,
 queman tu ciudad
Tu recuerdo vivía en mi cabeza...
Y toda su fuerza explotaba en mi corazón..

ESTRIBILLO

Ahora el final cambia y hace


|------------------------------------------------------------------|
|------------------------------------------------------------------|
|------------------------------------------------------------------|
|----11---7----4---------------------------------------------------|
|----9----5----2---4-----------------------------------------------|
|------------------2-----------------------------------------------|(x6)

En las últimas cuatro la 2ª guitarra hace


|-----14-----------------------------14--------------19----------------|
|----------14--15-----12---10--9----------14--15-----------14/15/14----|
|----------------------------------------------------------------------|
|----------------------------------------------------------------------|
|----------------------------------------------------------------------|
|----------------------------------------------------------------------|


|-----14-----------------------------14--------------19----------------|
|----------14--15-----12---10--9----------14--15-----------10--9-------|
|----------------------------------------------------------------------|
|----------------------------------------------------------------------|
|----------------------------------------------------------------------|
|----------------------------------------------------------------------|

Ahora viene un solo que no he podido sacar


ESTRIBILLO

INTRO

ESTRIBILLO

OUTRO

|----------------------------------------------------------------------|
|----------------------------------------------------------------------|
|----------------------------------------------------------------------|
|-------------4---2----------------------------------------------------|
|----2---4----2---0---2---4--------------------------------------------|
|----0---2------------0---2--------------------------------------------|


Si tenéis dudas u os sacáis el solo, ya sabéis. fergona@
Suggest correction
Give kudos to tab author, rate the tab!
1 2 3 4 5
comments
print report bad tab
guest
You may want to rate the tab now too:
select rating
Wanna post a correction for this tab? Suggest correction