Oops, an error
Loading. Please wait.

Sangre Joven Tab

24 views 1 this week
no commentswrite comment
1 2 3 4 5
3 more votes to show rating
add to favorites
launch autoscroll
font size
0
reset
how to read this tab
guitar tuner
×
Best way to learn
"Sangre Joven"
Autoscroll
slow
fast
+/-
esc
set tempo
stop
ESTRIBILLO


|-----------------------------------------|
|-----------------------------------------|
|-----------------------------------------|
|---4--7--2-4---2---4---------------------|
|---2--5--0-2---0---2---------------------|
|-----------------------------------------|

Sangre joven, para el rock and roll
savia nueva, para que nunca muera
sangre joven, para el rock and roll
savia nueva, para que nunca muera


VERSO


|-----------------------------------------|
|-----------------------------------------|
|-----------------------------------------|
|------4~~------7---2---4-----------------|
|---0--2~~------5---0---2-----------------|
|-----------------------------------------|

(Eso es lo que tocan durante cada verso, entre verso
y verso hacen movidas)

Por tus venas, corre sangre joven

(aqui raspa la guitarra, no puedo hacer tablatura de eso)

Llevas dentro, la savia nueva del rock

riff2

|----------------------|
|----------------------|
|----------------------|
|------------4~~-------|
|---2-0---0--2~~-------|
|-------2--------------|

Si es ley de vida, vivir, nacer, morir

riff3

|----------------------|
|----------------------|
|---2-2-2-2--4~--------|
|---2-2-2-2--4~--------|
|----------------------|
|----------------------|

Grita conmigo, muestranos tu poder!

(este verso termina en Fa# en vez de en Si)


PRE-ESTRIBILLO


|-----------------------------------------|
|-----------------------------------------|
|-----------------------------------------|
|-----------5-4-2-------2--4--------------|
|---2-4-5---------5-4---0--2--------------|
|---0-2-3---------------------------------|

En el barrio crecí, igual que tÚ...

|-----------------------------------------|
|-----------------------------------------|
|-----------------------------------------|
|-----------5-4-2-------------------------|
|---2-4-5---------5-4---------------------|
|---0-2-3---------------------------------|

Y mientras viva seré, rockero como tú!!!


ESTRIBILLO


VERSO


El veneno del rock, se apodera de mi
bajo tu piel, llega a tus entrañas
te engancha, como la droga más dura
siente su magia, él y tú cara a cara!


PRE-ESTRIBILLO


ESTRIBILLO


AHORA VIENE EL SOLO QUE NO HE SACADO (es jodido)


DESPUÉS DEL SOLO

|-----------------------------------------|
|-----------------------------------------|
|-----------------------------------------|
|-----------------------------------------|
|---2~-2-4-5-------0-2-0~----5-4-2--------|
|------------3~--3--------2---------------|

Saaaaaangreeeee, jooooooveeeeen


PRE-ESTRIBILLO


ESTRIBILLO


FIN


Si tenéis dudas o el solo, ya sabeis! fergona@
Suggest correction
Give kudos to tab author, rate the tab!
1 2 3 4 5
comments
print report bad tab
guest
You may want to rate the tab now too:
select rating
Wanna post a correction for this tab? Suggest correction