Oops, an error
Loading. Please wait.

Tu No Eres El Mejor Tab

20 views 1 this week
no commentswrite comment
1 2 3 4 5
3 more votes to show rating
add to favorites
launch autoscroll
font size
0
reset
how to read this tab
guitar tuner
×
Best way to learn
"Tu No Eres El Mejor"
Autoscroll
slow
fast
+/-
esc
set tempo
stop
INTRO

|-----------------------------------------------------------------|
|-----------------------------------------------------------------|
|-----------------------------------------------------------------|
|--10b11r10b11---10-9-7-------------7~~--7--5--2--7---------------|
|-----------------------10-9-7------7~~--7--5--2--7---------------|
|------------------------------10-8-5~~--5--3--0--5---------------|


|------------------------------------------------------------------------|
|------------------------------------------------------------------------|
|------------------------------------------------------------------------|
|--10b11-----------------------------10-9-7--------------7~~--7--5--2--7-|
|---------10h12p10h12p10h12p10/7/10---------10-9-7-------7~~--7--5--2--7-|
|---------------------------------------------------10-8-5~~--5--3--0--5-|


(ahora viene esta parte que se toca igual durante los versos)
(. significa PALM MUTE)

    A5    A5 A5 A5   A5 A5 A5    A5 A5  D5~~   x4
          .  .       .  .

    Yo soy el rey
    del rock and roll
    soy el mejor
    lo digo yo, que pasa?

    SI toco mal
    y eso que importa?
    el caso es que
    me lo creo yo

PRE-ESTRIBILLO


    A5 A5 A5 A5 A5 A5 A5 A5 A5 A5 A5  D5 G5
    .  .  .  .  .  .  .  .  .  .

    Eh tu no te pases
    nos estás cayendo mal
    nos comes el coco

    A5 A5 A5 A5 A5 A5 A5 A5 A5 A5
    .  .  .  .  .  .  .  .  .  .

    y no nos dejas pensar

ESTRIBILLO


    G5~~ D5~~ A5 A5 A5 A5 A5 A5 A5 A5 A5 A5 E5 D5 C5
              .  .  .  .  .  .  .  .  .  .

    Tu no eres el mejor!
    te han pagado, la promoción!
    Tu no eres el mejor!

    G5~~ D5~~ A5    A5 A5 A5   A5 A5 A5    A5 A5  D5~~
                    .  .       .  .

    te han pagado, la promoción!


    A5    A5 A5 A5   A5 A5 A5    A5 A5  D5~~   x5
          .  .       .  .

    Vosotros que habláis
    o es que no escucháis?
    la radio y la tele te te
    que saben mucho más

    importante soy
    y puteo yo
    a los que tratan
    de ser como yo

PRE-ESTRIBILLO


    A5 A5 A5 A5 A5 A5 A5 A5 A5 A5 A5  D5 G5
    .  .  .  .  .  .  .  .  .  .

    No sabes que eres,
    un montaje comercial?
    se forran a cuenta

    A5 A5 A5 A5 A5 A5 A5 A5 A5 A5
    .  .  .  .  .  .  .  .  .  .

    de tu carita especial

ESTRIBILLO


    G5~~ D5~~ A5 A5 A5 A5 A5 A5 A5 A5 A5 A5 E5 D5 C5
              .  .  .  .  .  .  .  .  .  .

    Tu no eres el mejor!
    te han pagado, la promoción!
    Tu no eres el mejor!
    te han pagado, la promoción!


    Dudas o, si tenéis el solo, fergona@
Suggest correction
Give kudos to tab author, rate the tab!
1 2 3 4 5
comments
print report bad tab
guest
You may want to rate the tab now too:
select rating
Wanna post a correction for this tab? Suggest correction