Oops, an error
Loading. Please wait.

Explotar Tab

35 views 1 this week
no commentswrite comment
1 2 3 4 5
3 more votes to show rating
add to favorites
launch autoscroll
font size
0
reset
how to read this tab
guitar tuner
×
Best way to learn
"Explotar"
Autoscroll
slow
fast
+/-
esc
set tempo
stop
Afinacion standard:
El comienzo va asi:

e -------------------------------------------------
B -------------------------------------------------
G --5--5--4---7--6---8--8--7---9--9--8---8---------
D --5--5--4---7--6---8--8--7---9--9--8---8---------
A --3--3--2---5--4---6--6--5---7--7--6---6---------
E ------------------------------------------0\\\\--


La Mayor parte de la Cancion va con este Riff.

e -----------------------------------------------
B -----------------------------------------------
G -----------------------------------------------
D ---------------------------7b-7-7-7b-7-7-7b----
A -----------------------------------------------
E -0-0-0-3-5-4-2-4-2--0-0-0----------------------


e -----------------------------------------------
B -----------------------------------------------
G -----------------------------------------------
D ---------------------------0-------------------
A -----------------------------------------------
E -0-0-0-3-5-4-2-4-2--0-0-0----------------------


e -----------------------------------------------
B -----------------------------------------------
G -----------------------------------------------
D ---------------------------7b-7-7-7b-7-7-7b----
A -----------------------------------------------
E -0-0-0-3-5-4-2-4-2--0-0-0----------------------

e -----------------------------------------------
B -----------------------------------------------
G -----------------------------------------------
D ---------------------------0-------------------
A -----------------------------------------------
E -0-0-0-3-5-4-2-4-2--0-0-0----------------------


e -----------------------------------------------
B -----------------------------------------------
G -----------------------------------------------
D ---------------------------7b-7-7-7b-7-7-7b----
A -----------------------------------------------
E -0-0-0-3-5-4-2-4-2--0-0-0----------------------

e -----------------------------------------------
B -----------------------------------------------
G -----------------------------------------------
D -----------------------------------------------
A ----------------------------5-7--7-6-5---------
E -0-0-0-3-5-4-2-4-2--5-4-6-4------------5-4-----


Luego va asi:

e ---------------------------------------------------
B ---------------------------------------------------
G ---------------------------------------------------
D ---------------------------------------------------
A ---------------------------------------------------
E -0-0-0--0/2-2--2/4-4-4-4--0-0-0--0/2-2-2--2/4-4-4-4 Repite
                                                         8
e -----------------------------------------------
B -----------------------------------------------
G -----------------------------------------------
D ---------------------------0-------------------
A -----------------------------------------------
E -0-0-0-3-5-4-2-4-2--0-0-0----------------------


Eso el todo lo demas tan solo se repite espero que les sea de 
mucha ayuda ya que es la primera cancion que saco y si quieren 
otra escribanme
Suggest correction
Give kudos to tab author, rate the tab!
1 2 3 4 5
comments
print report bad tab
guest
You may want to rate the tab now too:
select rating
Wanna post a correction for this tab? Suggest correction