Oops, an error
Loading. Please wait.

Sobrevivir Tab

20 views 1 this week
no commentswrite comment
1 2 3 4 5
3 more votes to show rating
add to favorites
launch autoscroll
font size
0
reset
how to read this tab
guitar tuner
×
Best way to learn
"Sobrevivir"
Autoscroll
slow
fast
+/-
esc
set tempo
stop
INTRO: Riff1

Riff1
   A  A9 A     D   Dsus4 D 
e|-0-0-0-0---|-2-2-0-2--------------
B|-2-2-0-2---|-3-3-3-3--------------
G|-2-2-2-2---|-2-2-2-2--------------
D|-2-2-2-2---|-0-0-0-0--------------
A|-0-0-0-0---|----------------------
E|-----------|----------------------

Riff2
  G5           D   Dsus4 D
e|-----------|-2-2-0-2------------------
B|-----------|-3-3-3-3------------------
G|--0-0-0-0--|-2-2-2-2------------------
D|--0-0-0-0--|-0-0-0-0------------------
A|--2-2-2-2--|--------------------------
E|--3-3-3-3--|--------------------------


Verso:
Riff1 (Repitiendose)
Cada vez que me miras puedo solo decir,
regalame un momento,
necesito vivir,
es el tiempo que me habla,
me ha hecho mirar,
Riff2 (Repitiendose)
cada vez que despierto a mi lado estás.

Coro:
Riff1 (Repitiendose)
Sobrevivir, 
quiero vivir,
sobrevivir,
quiero vivir.

Segunda estrofa (igual que la primera)

OUTRO:
Riff2 (Repitiendose)
Ayúdame,
quiero llegar,
sentir tu piel,
sentirte mas, sentirte mas.

CORO.
Se repite

SOLO:


e|--------------------------5-8----
B|----------------------5-8--------
G|----------------5-7-8------------
D|------------5-7------------------
A|------5-6-7----------------------
E|--5-8----------------------------
              x2
e|-----8-5---5-|-5-5-5--3-3-3-|-7-7-7--5-5-5--3-3-3-
B|-5-8-----8---|-6-6-6--5-5-5-|-8-8-8--7-7-7--5-5-5-
G|-------------|--------------|---------------------
D|-------------|--------------|---------------------
A|-------------|--------------|---------------------
E|-------------|--------------|---------------------

e|-----8-5------|-----8-5---5-------
B|-5-8-----8----|-5-8-----8---------
G|--------------|-------------------
D|--------------|-------------------
A|--------------|-------------------
E|--------------|-------------------

CORO
OUTRO
Suggest correction
Give kudos to tab author, rate the tab!
1 2 3 4 5
comments
print report bad tab
guest
You may want to rate the tab now too:
select rating
Wanna post a correction for this tab? Suggest correction