Oops, an error
Loading. Please wait.

3Am At A Party tab

version 1
version 1

Whole song

217 views 12 this week
no commentswrite comment
1 2 3 4 5
x 4
add to favorites
×
Save as Personal and add changes to this tab that will be seen only by you. Learn more ›
×
You can save this tab as Personal to edit and correct it or add notes. All changes will be seen only by you. Learn more »
launch autoscroll
font size
0
reset
how to read this tab
guitar tuner
edit
Autoscroll
slow
fast
+/-
esc
set tempo
stop
[Verse]
e|--0----0----0---0--0--0-----|
B|--2----2----2---3--2--0-----|
G|--2----2----2---2--0--2-----|
D|--2----2----0---0--0--0-----|
A|--0----0----0---0--0--0-----|
E|--2----0----0---0--0--0-----|  (4x)

i wish we had chances to talk like this 
a little more often 
but you were always dealing with your girlfriend's shit 
and i was always feeling broken over it 

[Verse]
e|--0----0----0---0--0--0-----|
B|--2----2----2---3--2--0-----|
G|--2----2----2---2--0--2-----|
D|--2----2----0---0--0--0-----|
A|--0----0----0---0--0--0-----|
E|--2----0----0---0--0--0-----|  (4x)

i like the way your hair looks in the sun 
and when you're banging into everyone 
i go to all your shows to watch you play 
and afterwards i hang out only if you stay 

[Verse]
e|--0----0----0---0--0--0-----|
B|--2----2----2---3--2--0-----|
G|--2----2----2---2--0--2-----|
D|--2----2----0---0--0--0-----|
A|--0----0----0---0--0--0-----|
E|--2----0----0---0--0--0-----|  (4x)

i wish you never got your heart so broke 
i wish you didn't sleep with her when you were drunk 
i wish you didn't make out in your friend's bedroom 
'cause she won't ever love you like the way i do 

e|--0----0----0---0--0--0-----|
B|--2----2----2---3--2--0-----|
G|--2----2----2---2--0--2-----|
D|--2----2----0---0--0--0-----|
A|--0----0----0---0--0--0-----|
E|--2----0----0---0--0--0-----|  (4x)

and you deserve better but you think you don't 
you deserve better than the one's you want 
you deserve better yet you'll never see 
you deserve better from someone like me

            
            
Suggest correction
Creating personal tab
Creating personal tab
You can edit any tab online and save it as your Personal.

You can edit, replace or remove any tab part or add personal notes – all changes will be seen only by you.

Personal tabs can be accessed anytime from any device, even offline.
Learn more »
comments
print report bad tab
guest
You may want to rate the tab now too:
select rating
Wanna post a correction for this tab? Suggest correction