Oops, an error
Loading. Please wait.

Everyday Late November bass

459 views 1 this week
1 commentread comment
1 2 3 4 5
3 more votes to show rating
add to favorites
×
Save as Personal and add changes to this tab that will be seen only by you. Learn more ›
×
You can save this tab as Personal to edit and correct it or add notes. All changes will be seen only by you. Learn more »
launch autoscroll
font size
0
reset
guitar tuner
edit
Autoscroll
slow
fast
+/-
esc
set tempo
stop
  Song: Everyday (Late November
  Band: Social Code
 Album: Social Code
Tuning: Drop D (DADG)
Tabber: aidypie

guys this song is absolutely wicked. it has an amazing chorus
and its just an all around fantastic song. so here it is, I had
to tab it, its just THAT good! so here it is, enjoy and rate. 


Intro/Verse: 00:04  5x
G:------------------------------------:
D:------------------------------------:
A:--------3---------------------------:
D:--0~------3~------5~------4~--------:

Chorus A:
G:------------------------------------:
D:------------------------------------:
A:------------------------------------:
D:--0~------3~------5~------4~--------:

Verse 3x

Chorus B:
G:------------------------------------:
D:------------------------------------:
A:------------------------------------:
D:--0~------3~------5~------4~--------:

G:------------------------------------:
D:------------------------------------:
A:------------------------------------:
D:--0~---0h23~------5~-------4~-------:

Bridge:
G:------------------------------------:
D:------------------------------------:
A:------------------------------------:
D:--00000000333333335555555544444444--:

G:------------------------------------:
D:------------------------------------:
A:------------------------------------:
D:--0000000033333333555555555555555~--:

Build up: 02:18
G:------------------------------------:
D:------------------------------------:
A:------------------------------------:
D:--00000000000000000000000000000000--:

Chorus B

Outro:
G:------------------------------------:
D:------------------------------------:
A:------------------------------------:
D:--00000000333333335555555544444444--:

G:------------------------------------:
D:------------------------------------:
A:------------------------------------:
D:--00000000333333335555555544444444--:

G:----------------------:
D:----------------------:
A:----------------------:
D:--0-0-0~--3-3-3~--5~--:


There you go thanks again. rate please and leave
coments good or bad!

            
            
Suggest correction
Creating personal tab
Creating personal tab
You can edit any tab online and save it as your Personal.

You can edit, replace or remove any tab part or add personal notes – all changes will be seen only by you.

Personal tabs can be accessed anytime from any device, even offline.
Learn more »
Give kudos to tab author, rate the tab!
1 2 3 4 5
comments
print report bad tab
1 comment total.
0 reply
daylightdies370 339 May 02, 2008 03:09 PM

do you have a guitar tab for this song?

guest
You may want to rate the tab now too:
select rating
Wanna post a correction for this tab? Suggest correction