Oops, an error
Loading. Please wait.

Miss You bass

252 views 3 this week
no commentswrite comment
1 2 3 4 5
3 more votes to show rating
add to favorites
×
Save as Personal and add changes to this tab that will be seen only by you. Learn more ›
×
You can save this tab as Personal to edit and correct it or add notes. All changes will be seen only by you. Learn more »
launch autoscroll
font size
0
reset
guitar tuner
edit
Autoscroll
slow
fast
+/-
esc
set tempo
stop
Author
 Song: Miss You
 Artist: Social Code
 Album: A Year At The Movies
 Year: 2004
 Tabbed By: Kodi McGovern
 Tuning (low to high): Gb Db Ab Eb

 This is my first tab ever, but it seems 99% right to me.



Verse: Guitar Only

 Prechorus 1x
|-----------------------------------|
|-----------------------------------|
|-22222222--------------------------|
|----------44444444-000000000000000x|
  1+2+3+4+ 1+2+3+4+ 1+2+3+4+1+2+3+4+

  Chorus 2x
|-------------------------------------------------------------------|
|-------------------------------------------------------------------|
|-2-222-222-22222---------------------------------------------------|
|-----------------2-222-222-22222-4-444-444-44444-0-000-000-00000---|
  1 + 2 + 3 + 4 + 1 + 2 + 3 + 4 + 1 + 2 + 3 + 4 + 1 + 2 + 3 + 4 +
                                                 |----------------|
                                                 |----------------|
                                                 |----------------| <-- Second Time
                                                 |0000000000000000|
                                                  1+2+3+4+1+2+3+4+
  Verse Two Part One 3x
|-----------------------------------------------------------------|
|-----------------------------------------------------------------|
|-2-2-2-----------------------------------------------------------| 
|-----------------4--44-----------000-------------0--00-----------|
  1 + 2 + 3 + 4 + 1 + 2 + 3 + 4 + 1 + 2 + 3 + 4 + 1 + 2 + 3 + 4 +

  Verse Two part Two 1x
|-------------------------------------------------|
|-------------------------------------------------|
|-2-2-2-------------------------------------------|
|-----------------4--44-----------0-0-0-0-0-0-0-0-|
  1 + 2 + 3 + 4 + 1 + 2 + 3 + 4 + 1 + 2 + 3 + 4 + 

  Chorus 2x
|-------------------------------------------------------------------|
|-------------------------------------------------------------------|
|-2-222-222-22222---------------------------------------------------|
|-----------------2-222-222-22222-4-444-444-44444-0-000-000-00000---|
  1 + 2 + 3 + 4 + 1 + 2 + 3 + 4 + 1 + 2 + 3 + 4 + 1 + 2 + 3 + 4 +
                                                 |----------------|
                                                 |----------------|
                                                 |----------------| <-- Second Time
                                                 |0000000000000000|
  Bridge Part One 1x
|---------------------------------------------------------------------|
|---------------------------------------------------------------------|
|-2222222222222222----------------------------------------------------|
|------------------4444444444444444-2222222222222222-0000000000000000-|
  1+2+3+4+1+2+3+4+ 1+2+3+4+1+2+3+4+ 1+2+3+4+1+2+3+4+ 1+2+3+4+1+2+3+4+

  Bridge Part Two 2x
|---------------------------------------------------------------------|
|---------------------------------------------------------------------|
|-2222222222222222----------------------------------------------------|
|------------------444444444444444--000000000000000--222-222-222-2222-|
  1+2+3+4+1+2+3+4+ 1+2+3+4+1+2+3+4+ 1+2+3+4+1+2+3+4+ 1+2+3+4+1+2+3+4+

 [Guitar Breakdown]

  Buildup 1x
|------------------|
|------------------|
|------------------|
|-0000000000000000-|
  1+2+3+4+1+2+3+4+

  Chorus 4x
|-------------------------------------------------------------------|
|-------------------------------------------------------------------|
|-2-222-222-22222---------------------------------------------------|
|-----------------2-222-222-22222-4-444-444-44444-0-000-000-00000---|
  1 + 2 + 3 + 4 + 1 + 2 + 3 + 4 + 1 + 2 + 3 + 4 + 1 + 2 + 3 + 4 +
                                               

  Outro 1x
|--------------------------------|
|--------------------------------|
|--------------------------------|
|-44444444444444444---2---0---2~-|
  1 + 2 + 3 + 4 + 1 + 2 + 3 + 4 +

            
            
Suggest correction
Creating personal tab
Creating personal tab
You can edit any tab online and save it as your Personal.

You can edit, replace or remove any tab part or add personal notes – all changes will be seen only by you.

Personal tabs can be accessed anytime from any device, even offline.
Learn more »
Give kudos to tab author, rate the tab!
1 2 3 4 5
comments
print report bad tab
guest
You may want to rate the tab now too:
select rating
Wanna post a correction for this tab? Suggest correction