Oops, an error
Loading. Please wait.

Far Behind tab

version 3
version 3

Whole song

1,700 views 3 this week
no commentswrite comment
1 2 3 4 5
1 last vote to show rating
add to favorites
×
Save as Personal and add changes to this tab that will be seen only by you. Learn more ›
×
You can save this tab as Personal to edit and correct it or add notes. All changes will be seen only by you. Learn more »
launch autoscroll
font size
0
reset
how to read this tab
guitar tuner
edit
Autoscroll
slow
fast
+/-
esc
set tempo
stop
Far Behind By: Social Distortion

This is my first tab. It is damn perfect too. Social D is my favorite band and this tab 
for them. Mike Ness is the shit. Anyways... Enjoy their new single on the Greatest Hits 
20 plus years and the man can still write a bitter punk rock classic. UNBELIEVABLE!!!

Feel free to email me if you have any ?s. SocialDRcks@dls.net

Tuning: Standard         ***CAPO 1***

Chords Used:  G- D-6    D- G-8    C- G-6-|
                 A-6       D-8       D-6-|
                 E-4       A-6       A-4-|

h= hammer on    b= bend    rb= release bend    p= pulloff

***All notes are not relative to capo but to the neck***
***Just read the tab as if the capo werent there***

Strum Each Chord Once

      G                 D
With friends like you, who needs enemies
 C
You aint right you aint ever gonna be
 G                   D                      C
Your out in the cold Im afraid you've been declined
 G                              D
You shake my hand while you're pissin on my leg
 C
Im cuttin you loose i dont need this misery
 G                      D                 C
Your soul is toxic you aint no friend of mine

No!

e- --------------------|
B- 9-9-8-8-9-9-9-------|
G- -8---8---8-8-8------|      (x2)
D- --------------------|
A- --------------------|
E- --------------------|

Strum the chord once then palm mute. Listen to the song to figure out how many times. It 
just as good if you dont want to palm mute. Same chords as intro.

You talk real trash when Im not around
To build yourself up you got to tear me down
You'll have to excuse me I got better things to do
You smile through your teeth, you talk out your neck
Every chance you get your gonna stab my back
When times run out I got nothin left for you

           G   D   C
Im leavin you far behind
           G   D   C
Im leavin you far behind
             G     D   C
Stop wastin all of my time
           G   D   C
Im leavin you far behind

Yeah!

e- ----------------------|
B- 9-9-8-8-9-9-9---------|
G- -8---8---8-8-8--------|        (x2)
D- ----------------------|
A- ----------------------|
E- ----------------------|

So Im pullin out the weeds Im takin stock
You can talk the talk but cant walk the walk
In our situation I've gotten the best of you
So Im leavin you to sink in all your glory
But you and me it's the end of the story
Get out of my way I've got better things to do

Im leavin you far behind
Im leavin you far behind
Stop wastin all of my time
Im leavin you far behind

Octaves
e- --------------------------------------|
B- -9-9-9-9-8-8-8-8-9-9-9-9-9-9-9-9------|
G- --------------------------------------|      (x2)
D- -6-6-6-6-5-5-5-5-6-6-6-6-6-6-6-6------|
A- --------------------------------------|
E- --------------------------------------|

Solo Time!!! It only took me like a half an hour to get this solo down. i just popped in 
record and played along. Start out with a pick slide!!! Rock On!!!

e- --------------------------------------------------------------|
B- --------------------------------------------------------------|
G- --------------------------------------------------------------|
D- -----------0-3-0----------------------------------------------|
A- -3-0---0h3--------44---444-3-0---0h3-0-3-0--------------------|
E- -----4-------------------------4-----------44--6-4-6-4--------|

e- ----------------------------------------------------------------|
B- ----------------------------------------------46464-----6666666-|
G- ----------0-3-0-3b5-00-0-3-0-3b5-00-0-3-0-3b5-------------------|
D- -----000h3------------------------------------------------------|
A- -0h3------------------------------------------------------------|
E- ----------------------------------------------------------------|

e- ---------------------------------------------------------------|
B- --------4------------------------------------------------------|
G- -0-3-3b5-5rb3--3p0----030-3p0----------------------------------|
D- -------------------3----------3--000-3---3-0-------------------|
A- ---------------------------------------------0-3-0-------------|
E- ----------------------------------------------------44-6-4-----|

Im leavin you far behind
Im leavin you far behind       (x2)
Stop wastin all of my time
Im leavin you far behind

Strum each chord once again like intro

With friends like you who needs enemies
You aint right you aint ever gonna be
Your soul is toxic you aint no friend of mine

Thats it. Plain and simple. Pretty awesome song. Saw Social D at Summerfest and they 
amazing. I've seen them numerous times before all over the country. Hope they keep touring 
maybe Mike could pull off another album.  Pce Out!

            
            
Suggest correction
Creating personal tab
Creating personal tab
You can edit any tab online and save it as your Personal.

You can edit, replace or remove any tab part or add personal notes – all changes will be seen only by you.

Personal tabs can be accessed anytime from any device, even offline.
Learn more »
Give kudos to tab author, rate the tab!
1 2 3 4 5
comments
print report bad tab
guest
You may want to rate the tab now too:
select rating
Wanna post a correction for this tab? Suggest correction