Oops, an error
Loading. Please wait.

Playpen bass

37 views 1 this week
no commentswrite comment
1 2 3 4 5
3 more votes to show rating
add to favorites
×
Save as Personal and add changes to this tab that will be seen only by you. Learn more ›
×
You can save this tab as Personal to edit and correct it or add notes. All changes will be seen only by you. Learn more »
launch autoscroll
font size
0
reset
guitar tuner
edit
Autoscroll
slow
fast
+/-
esc
set tempo
stop
Author
Difficulty
I saw that no one had put out the bass tab for this Social D oldie, so I decided to take the time to do it
myself. Enjoy! It should be 100% accurate. (The double ones are 11's btw)

INTRO pt. 1:
G|-------------------------------|
D|-------------------------------|
A|-------------------------------|
E|--4-4--8--11-11--8--7-7--2-2---| (×4)

INTRO pt. 2:
G|---------------------------------|
D|---------------------------------|
A|---------------------------------|
E|--4-4--11-11--7-7--2-2-----------| (×4)

G|--------------------------------|
D|--------------------------------|
A|--------------------------------|
E|--4-4--11-11--7-7--2-2-2-2------| (end of fourth one)

VERSE:
G|---------------------------------|
D|---------------------------------|
A|---------------------------------|
E|--4-4-11-11-7-7-2-2--------------| (×13)

CHORUS:
G|-------------------------------|
D|-------------------------------|
A|-------------------------------|
E|--4-4--8--11-11--8--7-7--2-2---| (×4)

[VERSE]
G|---------------------------------|
D|---------------------------------|
A|---------------------------------|
E|--4-4-11-11-7-7-2-2--------------| (×13)

[CHORUS]
G|-------------------------------|
D|-------------------------------|
A|-------------------------------|
E|--4-4--8--11-11--8--7-7--2-2---| (×4)

[SOLO]
G|---------------------------------|
D|---------------------------------|
A|---------------------------------|
E|--4-4-11-11-7-7-2-2--------------| (×10)

[CHORUS]
G|-------------------------------|
D|-------------------------------|
A|-------------------------------|
E|--4-4--8--11-11--8--7-7--2-2---| (×4)

OUTRO:
(Starts right at end of chorus)
G|--------------------------------------|
D|--------------------------------------|
A|--------------------------------------|
E|--7-7-7-7-7-7--2-2-2-2-2-2--4-4-4-4---|

G|---------------------------|
D|---------------------------|
A|---------------------------|
E|-8~--11~--8~--7~--2~--4~---|

============================

~ - Hold

============================

            
            
Suggest correction
Creating personal tab
Creating personal tab
You can edit any tab online and save it as your Personal.

You can edit, replace or remove any tab part or add personal notes – all changes will be seen only by you.

Personal tabs can be accessed anytime from any device, even offline.
Learn more »
Give kudos to tab author, rate the tab!
1 2 3 4 5
comments
print report bad tab
guest
You may want to rate the tab now too:
select rating
Wanna post a correction for this tab? Suggest correction