Oops, an error
Loading. Please wait.

Reach For The Sky bass

version 2
version 2

Whole song

Interactive

4,571 views 15 this week
1 commentread comment
1 2 3 4 5
x 3
add to favorites
×
Save as Personal and add changes to this tab that will be seen only by you. Learn more ›
×
You can save this tab as Personal to edit and correct it or add notes. All changes will be seen only by you. Learn more »
launch autoscroll
font size
0
reset
guitar tuner
edit
Autoscroll
slow
fast
+/-
esc
set tempo
stop
Author
Difficulty
Tuning standard.

INTRO:
E|---------------|
A|---------------|
D|-1-1111-1-1111-| x4 (guitar is getting higher, but bass is standing)
G|---------------|

Part 1:
E|------------------------------------------------------------|
A|------------------------------------------------------------|
D|-1-1111-1-1111------------------4-4444-4-4444---------------| x2
G|------------------2-2222-2-2222---------------4-4444-4-4444-|

E|---------------|
A|---------------|
D|-1-1111-1-1111-|
G|---------------|

Verse:
E|------------------------------------------------------------|
A|------------------------------------------------------------|
D|-1-1111-1-1111------------------4-4444-4-4444---------------| x4
G|------------------2-2222-2-2222---------------4-4444-4-4444-|

Chorus:

E|------------------------------------------------------------|
A|------------------------------------------------------------|
D|-1-1111-1-1111------------------4-4444-4-4444---------------| x2
G|------------------2-2222-2-2222---------------4-4444-4-4444-|

E|---------------|
A|---------------|
D|-1-1111-1-1111-|
G|---------------|

Verse 2:

E|------------------------------------------------------------|
A|------------------------------------------------------------|
D|-1-1111-1-1111------------------4-4444-4-4444---------------| x4
G|------------------2-2222-2-2222---------------4-4444-4-4444-|

Chorus 2:

E|------------------------------------------------------------|
A|------------------------------------------------------------|
D|-1-1111-1-1111------------------4-4444-4-4444---------------| x2
G|------------------2-2222-2-2222---------------4-4444-4-4444-|

E|---------------|
A|---------------|
D|-1-1111-1-1111-|
G|---------------|

Guitar Solo:

E|------------------------------------------------------------|
A|------------------------------------------------------------|
D|-1-1111-1-1111------------------4-4444-4-4444---------------| x2
G|------------------2-2222-2-2222---------------4-4444-4-4444-|

E|---------------|
A|---------------|
D|-1-1111-1-1111-|
G|---------------|

Verse 3: (only bass)

E|------------------------------------------------------------|
A|------------------------------------------------------------|
D|-1-1111-1-1111------------------4-4444-4-4444---------------| x2
G|------------------2-2222-2-2222---------------4-4444-4-4444-|

Chorus 3:

E|------------------------------------------------------------|
A|------------------------------------------------------------|
D|-1-1111-1-1111------------------4-4444-4-4444---------------| x4
G|------------------2-2222-2-2222---------------4-4444-4-4444-|

End on:
E|-----|
A|-----|
D|-1---|
G|-----|

That's all. Have fun!

            
            
Suggest correction
Creating personal tab
Creating personal tab
You can edit any tab online and save it as your Personal.

You can edit, replace or remove any tab part or add personal notes – all changes will be seen only by you.

Personal tabs can be accessed anytime from any device, even offline.
Learn more »
Give kudos to tab author, rate the tab!
1 2 3 4 5
comments
print report bad tab
1 comment total.
0 reply
Staticnoise 31 Dec 10, 2011 12:20 PM

You have your strings backwards for this song. This song is not played on the High D,G strings, But rather on the low E,A strings. That is all.

guest
You may want to rate the tab now too:
select rating
Wanna post a correction for this tab? Suggest correction