Oops, an error
Loading. Please wait.
We have Chord Pro version of Story Of My Life.
It's the closest thing you can get to the original song and it has interactive parts. Check out the tab »
×
66,299 views 3 this week
2 commentsread comments
1 2 3 4 5
x 6
add to favorites
launch autoscroll
font size
0
reset
how to read this tab
guitar tuner
backing track
0:00
0:00
Autoscroll
slow
fast
+/-
esc
set tempo
stop
Author
This tab is 150% correct, solo part and all.
h=hammer
p=pull off
/=slide
The chords are just:
G (x8)
C (x4)
D (x4)
repeat

This is the intro:

e|------------------------------------------|
B|------------------------------------------|
G|--------------------0---------------------|
D|---------0------0h2----0--2p0-------------|
A|-----0h2-----3-----------------0----------|
E|--3---------------------------------------|

e|----------------------------------------------------------|
B|----------------------------------------------------------|
G|-----------------------------------------2-2-2-4-4-4p2p0--|
D|----------2-0---0-2p0---------------2/4-------------------|
A|----2-3----------------0-------2-3------------------------|
E|-3--------------------------3-----------------------------|

e|----------------------------3-------3--------3-3-3-5-7-7-7-----|
B|----------3--3h5p3--3--3h5-----3h5-----3--3--------------------|
G|-----0/4-------------------------------------------------------|
D|--2------------------------------------------------------------|
A|---------------------------------------------------------------|
E|---------------------------------------------------------------|

That's the intro, for the solo, play the intro, immediatly followed by this:
e|--7-5-3-5-3-----------3--3---------------------------|
B|-------------3--5--5--3--3---------------------------|
G|-----------------------------------------------------|
D|-----------------------------0--2p0-------------2--0-|
A|-------------------------------------0----2-3--------|
E|----------------------------------------3------------|

e|----------------------------------------------7----3---5-|
B|----------------------------------------------8----5---7-|
G|-------0--0--2--2/4-4-4-------2--0---2--2/4---7----5---7-|
D|-0-0-2-------------------0--0----------------------------|
A|---------------------------------------------------------|
E|---------------------------------------------------------|
Then at the end of the solo he just individually pick the notes in the 3 string chords.
Suggest correction
comments
print report bad tab
2 comments total.
0 reply
sonno92 46 Sep 17, 2014 08:11 AM

Maybe the tab is correct but not the key, you should transpose it down of a semitone (F#)

0 reply
Jamaldawolf 10 Oct 29, 2015 03:50 PM

it shoulnt even be an option of a tab, its not just the key either, its like his guitar was out of tune in three different scales

guest
You may want to rate the tab now too:
select rating
Wanna post a correction for this tab? Suggest correction