Oops, an error
Loading. Please wait.

Soothe Tab

28 views 28 this week
no commentswrite comment
1 2 3 4 5
3 more votes to show rating
add to favorites
launch autoscroll
font size
0
reset
how to read this tab
guitar tuner
Autoscroll
slow
fast
+/-
esc
set tempo
stop
Help us to improve Ultimate-Guitar.com Take our survey!
×
Author
Difficulty
novice
About this tab version
New band and song. Think they might be big. During the instrumental and outro section there is some other instrument, sounds like something from an orchestra playing, so it was kind of hard for me to hear the guitar. Anyways, hope you enjoy. Was this info helpful? Yes No
[Intro]

e|---------------------------------------------------------------------------|
B|---------------------------------------------------------------------------|
G|------5555-----------------------------------------------------------------|
D|-7777-5555-5555-2222-3-3-77777-2-2-55555-----------------------------------|
A|-7777-3333-5555-2222-3-3-77777-2-2-55555-----------------------------------|
E|-5555------3333-0000-1-1-55555-0-0-33333-----------------------------------|


[Verse]
   I'll tell you what you want to hear...
e|---------------------------------------------------------------------------|
B|---------------------------------------------------------------------------|
G|------5555-----------------------------------------------------------------|
D|-7777-5555-5555-2222-3-3-77777-2-2-55555-----------------------------------| x4
A|-7777-3333-5555-2222-3-3-77777-2-2-55555-----------------------------------|
E|-5555------3333-0000-1-1-55555-0-0-33333-----------------------------------|


[Chorus]
   I don't want a thing
e|---------------------------------------------------------------------------|
B|---------------------------------------------------------------------------|
G|-----55555---------------77777---------------------------------------------|
D|-7-7-55555-5-5-22222-3-3-77777-2-2-55555-----------------------------------| x2
A|-7-7-33333-5-5-22222-3-3-55555-2-2-55555-----------------------------------|
E|-5-5-------3-3-00000-1-1-------0-0-33333-----------------------------------|


[Verse]
   I'll be there if you tell me when...
e|---------------------------------------------------------------------------|
B|---------------------------------------------------------------------------|
G|------5555-----------------------------------------------------------------|
D|-7777-5555-5555-2222-3-3-77777-2-2-55555-----------------------------------| x4
A|-7777-3333-5555-2222-3-3-77777-2-2-55555-----------------------------------|
E|-5555------3333-0000-1-1-55555-0-0-33333-----------------------------------|


[Chorus]
   I don't want a thing, I don't want a thing
e|---------------------------------------------------------------------------|
B|---------------------------------------------------------------------------|
G|-----55555---------------77777---------------------------------------------|
D|-7-7-55555-5-5-22222-3-3-77777-2-2-55555-----------------------------------| x2
A|-7-7-33333-5-5-22222-3-3-55555-2-2-55555-----------------------------------|
E|-5-5-------3-3-00000-1-1-------0-0-33333-----------------------------------|


[Instrumental]


[Chorus]
   I don't want a thing, I don't want a thing
e|---------------------------------------------------------------------------|
B|---------------------------------------------------------------------------|
G|-----55555---------------77777---------------------------------------------|
D|-7-7-55555-5-5-22222-3-3-77777-2-2-55555-----------------------------------| x2
A|-7-7-33333-5-5-22222-3-3-55555-2-2-55555-----------------------------------|
E|-5-5-------3-3-00000-1-1-------0-0-33333-----------------------------------|


[Verse]
   I'll tell you what you want to hear...
e|---------------------------------------------------------------------------|
B|---------------------------------------------------------------------------|
G|------5555-----------------------------------------------------------------|
D|-7777-5555-5555-2222-3-3-77777-2-2-55555-----------------------------------| x2
A|-7777-3333-5555-2222-3-3-77777-2-2-55555-----------------------------------|
E|-5555------3333-0000-1-1-55555-0-0-33333-----------------------------------|


[Chorus]
   I don't want a thing, I don't want a thing
e|---------------------------------------------------------------------------|
B|---------------------------------------------------------------------------|
G|-----55555---------------77777---------------------------------------------|
D|-7-7-55555-5-5-22222-3-3-77777-2-2-55555-----------------------------------| x4
A|-7-7-33333-5-5-22222-3-3-55555-2-2-55555-----------------------------------|
E|-5-5-------3-3-00000-1-1-------0-0-33333-----------------------------------|


[Outro]

e|---------------------------------------------------------------------------|
B|---------------------------------------------------------------------------|
G|-----55555-----------------------------------------------------------------|
D|-7-7-55555-5-5-22222-3-3-77777-2-2-55555-----------------------------------| x2
A|-7-7-33333-5-5-22222-3-3-77777-2-2-55555-----------------------------------|
E|-5-5-------3-3-00000-1-1-55555-0-0-33333-----------------------------------|
Suggest correction
Give kudos to tab author, rate the tab!
1 2 3 4 5
comments
print report bad tab
guest
You may want to rate the tab now too:
select rating
Wanna post a correction for this tab? Suggest correction