Oops, an error
Loading. Please wait.

Boy In A Magazine Tab

1,820 views 1 this week
no commentswrite comment
1 2 3 4 5
2 more votes to show rating
add to favorites
launch autoscroll
font size
0
reset
how to read this tab
guitar tuner
Autoscroll
slow
fast
+/-
esc
set tempo
stop
Help us to improve Ultimate-Guitar.com Take our survey!
×
Verse
------------------------------------------------------------------|
-----1----1--------1~---------------------------------------------|
-----2----2--------0~---------------------------------------------|
-----3----3--------2~---------------------------------------------|
-------------------3~---------------------------------------------|
------------------------------------------------------------------|


Pre-chorus
-----------------------------------------------------3------------|
---1----1----1----1------1----1----1-----1---1---1---3------------|
---2----2----2----2------2----2----2-----2---2---2---0------------|
---2----2----3----3------2----2----3-----3---2---2---0------------|
-----------------------------------------------------2------------|
-----------------------------------------------------3------------|


Chorus
-----------------------------------------------------------------------------|
--1--1---1--1--1--1--1--1----------------------------1-----------------------|
--2--2---0--0--0--0--2--2---repeat 3 times--------------0--------------------|
---------------3--3---2--2--0--0--2--2------then on the 4th time-------2-----|
---------3--3--2--2----------------------------------3-----------------------|
---------------3--3----------------------------------------------------------|


solo
------------------------------------------------------------------|
---10--8--10--8-----------------8--10--10--8--10--8---------------|
-----------------9--7-------9-------------------------9--7--7-----|
------------------------10----------------------------------------|
------------------------------------------------------------------|
------------------------------------------------------------------|

----------------------------------------------15---13--12---------|
-----------8--10--10--8--10--13--10--13--15----------------13-----|
---9--------------------------------------------------------------|
------10----------------------------------------------------------|
------------------------------------------------------------------|
------------------------------------------------------------------|

------------------------------------------------------------------|
------10--10--8--10-----------------------------------------------|
--12------------------9--7--------5-------------------------------|
------------------------------------------------------------------|
------------------------------------------------------------------|
------------------------------------------------------------------|
Suggest correction
Give kudos to tab author, rate the tab!
1 2 3 4 5
comments
print report bad tab
guest
You may want to rate the tab now too:
select rating
Wanna post a correction for this tab? Suggest correction