Oops, an error
Loading. Please wait.

Funeral Masses Tab

version 2
version 2

Whole song

65 views 1 this week
no commentswrite comment
1 2 3 4 5
please rate
add to favorites
launch autoscroll
font size
0
reset
how to read this tab
guitar tuner
Autoscroll
slow
fast
+/-
esc
set tempo
stop
Help us to improve Ultimate-Guitar.com Take our survey!
×
Author
-----------------------------------------------------------------------------
                           Funeral Masses - Socratic
-----------------------------------------------------------------------------

Tuning: STANDARD

Intro (played on acoustic guitar)(listen for strumming pattern)
e|-----------------------------------------|
B|-1-1-1-1-1-0-0-0-0-0-3-3-3-3-3-1-1-1-1-1-|
G|-2-2-2-2-2-2-2-2-2-2-2-2-2-2-2-2-2-2-2-2-|
D|-2-2-2-2-2-2-2-2-2-2-2-2-2-2-2-2-2-2-2-2-|
A|-0-0-0-0-0-0-0-0-0-0-0-0-0-0-0-0-0-0-0-0-|
E|-----------------------------------------|

e|-----------------------------------------|
B|-1-1-1-1-1-0-0-0-0-0-3-3-3-3-3-1-1-1-1-1-|
G|-2-2-2-2-2-2-2-2-2-2-0-0-0-0-0-0-0-0-0-0-|
D|-3-3-3-3-3-3-3-3-3-3-0-0-0-0-0-0-0-0-0-0-|
A|---------------------2-2-2-2-2-2-2-2-2-2-|
E|---------------------3-3-3-3-3-3-3-3-3-3-|

It isn't enough for your family....
e|---------------------|
B|---------------------|
G|---------------------|
D|-7----7----3----5----|
A|-7----7----3----5----|
E|-5----5----1----3----|

Verse
e|-----------------------------------------------------------------|
B|-----------------------------------------------------------------|
G|-----------------------------------------------------------------|
D|-7-7-7-7-7-7-7-7-5-5-5-5-5-5-5-5-3-3-3-3-3-3-3-3-5-5-5-5-5-5-5-5-|
A|-7-7-7-7-7-7-7-7-3-3-3-3-3-3-3-3-3-3-3-3-3-3-3-3-5-5-5-5-5-5-5-5-|
E|-5-5-5-5-5-5-5-5-----------------1-1-1-1-1-1-1-1-3-3-3-3-3-3-3-3-|

Chorus
e|----------------------------|
B|----------------------------|
G|-5--------------------------|
D|-5------3------7------3-----|
A|-3-16X--3------7------3-----|
E|--------1-16X--5-16X--1-16X-|

Piano Solo
e|-------3------------5-3-----|
B|---3-5---5-3----3-5-----5-3-|
G|-5------------5-------------|
D|----------------------------|
A|----------------------------|
E|----------------------------|

He's kind of like the wind...
e|------------------------|
B|------------------------|
G|-10-----------7----9----|
D|-10-----10----7----9----|
A|-8--8X--10----5-8X-7-8X-|
E|--------8--8X-----------|

Ending
e|---------------------------------------------|
B|---------------------------------------------|
G|-------------------------------------------5-|
D|-3-3-3-3-5-5-5-5-3-3-3-3-5-5-5-5-3-3-3-3-5-5-|
A|-3-3-3-3-5-5-5-5-3-3-3-3-5-5-5-5-3-3-3-3-5-3-|
E|-1-1-1-1-3-3-3-3-1-1-1-1-3-3-3-3-1-1-1-1-3---|
Suggest correction
What's this?
You can suggest a correction to this tab. Community and Mods will review your correction and vote to approve or reject it.
comments
We did not receive enough feedback on this tab! Please rate:
print report bad tab
1 2 3 4 5
guest
You may want to rate the tab now too:
select rating
Please do not post tabs as comments. Select "correction" instead!