Oops, an error
Loading. Please wait.

Afrodisiacos Bass

version 1
version 1

Whole song

170 views 3 this week
no commentswrite comment
1 2 3 4 5
2 more votes to show rating
add to favorites
×
Save as Personal and add changes to this tab that will be seen only by you. Learn more ›
×
You can save this tab as Personal to edit and correct it or add notes. All changes will be seen only by you. Learn more »
save as personal
new!
launch autoscroll
font size
0
reset
guitar tuner
Autoscroll
slow
fast
+/-
esc
set tempo
stop
Les dejo un tab con mucho feeling, el tab que transcribió Mariano está
bien pero hay notas que faltan y otras que yo para mí están mal.
Un abrazo a los bajistas que tocan Soda !!!

Intro

G------------------------------------------
D----------------------------------------4-
A---7-6-4~---7-6-------7-6-------7-6-------
E-4--------4-----5~--4-----4~--4-----2~----

G------------------------------------------------
D--------------------------------77-------77-----
A-44---4-----44---44-4---7-6---------------------
E----4---2_4----4------4-----5-5----5-5-5----555-

G------------------------------------------
D----------66-------66----------------4-4s-
A-7-6-----------------------7-6------------
E-----4-4-----4-4-4----444-------2-2-------

G--------------------------------------------9-
D-------------------------------55-------5-----
A--4~----7-6-4-4~----7-6-4-77-4------------7---
E-----4-----------4---------------0-2-3--------

G--------------------------------------------
D-------------------------------55-45--------
A--4~----7-6-4-4~----7-6-4-77-4--------------
E-----4-----------4--------------------0-2-4-

G------------------------------
D------------------------------
A-------------6~-4-4-6~-7-7-6~-
E-0-0-2~--4-4------------------

Verso I
Desperté, desperté...

G-------------------------------------------9-
D-------------------------------55------------
A--4~----7-6-4-4~----7-6-4-77-4---------6-7---
E-----4-----------4---------------0-2-3-------

G--------------------------------------------
D-------------------------------55-45--------
A--4~----7-6-4-4~----7-6-4-77-4--------------
E-----4-----------4--------------------0-2-4-

Sooooolo un vago olor, maaaaaan - chás en el techo

G-----------------------------------------------------------
D-----------------------------------------------6-----------
A-------------6~-4-4-6~-7-7-6~-------------6~-4---6~-7-7-6~-
E-0-0-2~--4-4------------------0-0-2~--4-4------------------

Estribillo
Bailando hasta cambiar la piel...

G---------------------------------
D---------------------------------
A---------------------------------
E-5~-55~-55~-55~-5-7~-77~-77~-77~-

Afrodisíacos, afrodisíacos (siento tu veneno en mis espaldas)

G-------------------------------
D---------------------55--------
A--7-6-4---7-6-4--7-4-----------
E--------4----------------0-2-3-

Afrodisíacos, afrodisíacos

G----------6-4_6----------6-6~--------------
D----------------------------------5--------
A---7-6-4----------7-6-4-------7-4----------
E-4--------------4--------------------0-2-3-

Oooooooo io ioooooooo....

G-------------------------------------------------------------------
D-------------------------------------------------------6-----------
A------------6~-4-4-6~-7-7--1413-14_13-------------6~-4---6~-7-7-6~-
E-0-0-2~-4-4---------------------------0-0-2~-4-4-------------------

Estribillo
Bailando hasta cambiar la piel...

G------------------------------------------------
D---------7-----7-----7------9-----9-----9-----9-
A------------------------------------------------
E-55~-55~---55~---55~---5-7~---77~---77~---77~---

Puente

G--------------------------6~------------------
D-14-13-11s----------------------------7-7-7-7-
A------------------7-6--4-----7-7-7-7----------
E-----------2--5-4-----------------------------

G----------------------------------------------
D---------------------------------7-7-6-767-7~-
A-44---4-----44---4--4-77---7-4----------------
E----4---2_4----2---------7--------------------

G--------------------------------------------
D--------------------------------------------
A-44---4-----44---4--4-7-7-6-77---7----------
E----4---2_4----2---------------5---5-5-5-5~-

G----66----------66------66-------99------99-----------------
D--------------------------------------------------77-----77-
A--4----4-4--4-4----4-4-----6-7------7-7-----7---------------
E------------------------------------------------5----5-5----

G----66-----66-----66-----66------99----99--9-----------------
D--------------------------------------------------7-6-4------
A--4----4-4----4-4----4-4-----4-7----7----7---7-----------7-6-
E------------------------------------------------5------------

G----66----66-------66----66-------99---99----9---------------
D--------------------------------------------------7-6-4------
A--4----4-----44--4----4-----44S-7----7-----7-------------7-6-
E-----------------------------------------------5-------------

G----66----66-------66----66-------99---99----9----
D--------------------------------------------------
A--4----4-----44--4----4-----44S-7----7-----7------
E-----------------------------------------------5--

Ieeeeeee ie ieeeee....

G-------------------------------------------------------------------
D-------------------------------------------------------6-----------
A------------6~-4-4-6~-7-7--1413-14_13-------------6~-4---6~-7-7-6~-
E-0-0-2~-4-4---------------------------0-0-2~-4-4-------------------

Estribillo
Bailando hasta cambiar la piel...bailando hasta cambiar la piel

G---------------------------------
D---------------------------------
A---------------------------------
E-5~-55~-55~-55~-5-7~-77~-77~-77~-

Bailando hasta cambiar la piel...bailando hasta cambiar la piel uooo

G---------------------------------------------------
D---77---77-----77----77-----99-----99-----99----99-
A---------------------------------------------------   (x2)
E-5---55~---55~---55~----5-7~---77~----77~---77~----

G-----------------------------------------------
D---77---77-----77----77-----99-----99-----99---
A-----------------------------------------------
E-5---55~---55~---55~----5-7~---77~----77~---7~-

Final
Hasta cambiar la piel...(varias veces hasta apagarse)

-------4--------
---------2-1----
--4-2-----------
--------------2-

ADRIAN DE LUCA
hadl72@

oooooooooooooo______________ooooooooooooo_______________oooooooooooooo
Suggest correction
Give kudos to tab author, rate the tab!
1 2 3 4 5
There is a new version of this tab from 1 day ago which you may like more. Go check it out:
comments
print report bad tab
guest
Wanna post a correction for this tab? Suggest correction