Oops, an error
Loading. Please wait.

De Música Ligera Tab

version 2
127,599 views 96 this week
5 commentsread comments
1 2 3 4 5
x 48
add to favorites
launch autoscroll
font size
0
reset
how to read this tab
guitar tuner
Autoscroll
slow
fast
+/-
esc
set tempo
stop
Help us to improve Ultimate-Guitar.com Take our survey!
×
Author
DE MUSICA LIGERA – SODA STEREO

e|--2----2-----------3----|--2----2---2-0--0--0--0--|
B|--3----3-----------0----|--3----3---3-2--2--2--2--|
G|--4----4-----------0----|--2----2---2-2--2--2--2--|
D|--4----4-----------0----|--0----0---0-2--2--2--2--|
A|--2----2----------------|-------------0--0--0--0--|
E|-----------3-3--3-------|-------------------------|

                           Entra bajo y batería 0:05
e|--2----2-----------3----|--2----2---2-0--0--0--0--|
B|--3----3-----------0----|--3----3---3-2--2--2--2--|
G|--4----4-----------0----|--2----2---2-2--2--2--2--|
D|--4----4-----------0----|--0----0---0-2--2--2--2--|
A|--2----2----------------|-------------0--0--0--0--|
E|-----------3-3--3-------|-------------------------|

e|--2----2-----------3----|--2----2---2-0--0--0--0--|
B|--3----3-----------0----|--3----3---3-2--2--2--2--|
G|--4----4-----------0----|--2----2---2-2--2--2--2--|
D|--4----4-----------0----|--0----0---0-2--2--2--2--|
A|--2----2----------------|-------------0--0--0--0--|
E|-----------3-3--3-------|-------------------------|

e|--2----2-----------3----|--2----2---2-0--0--0--0--|
B|--3----3-----------0----|--3----3---3-2--2--2--2--|
G|--4----4-----------0----|--2----2---2-2--2--2--2--|
D|--4----4-----------0----|--0----0---0-2--2--2--2--|
A|--2----2----------------|-------------0--0--0--0--|
E|-----------3-3--3-------|-------------------------|

e|--2----2-----------3----|--2----2---2-0--0--0--0--|
B|--3----3-----------0----|--3----3---3-2--2--2--2--|
G|--4----4-----------0----|--2----2---2-2--2--2--2--|
D|--4----4-----------0----|--0----0---0-2--2--2--2--|
A|--2----2----------------|-------------0--0--0--0--|
E|-----------3-3--3-------|-------------------------|

e|--2----2-----------3----|--2----2---2-0--0--0--0--|
B|--3----3-----------0----|--3----3---3-2--2--2--2--|
G|--4----4-----------0----|--2----2---2-2--2--2--2--|
D|--4----4-----------0----|--0----0---0-2--2--2--2--|
A|--2----2----------------|-------------0--0--0--0--|
E|-----------3-3--3-------|-------------------------|

  Entra voz: 0:23 –(PM Bm G D A)-
  Ella durmió,al calor de las masas
  Y yo desperté queriendo soñarla
                                   Algún    tiempo atrás,
e|-------------------|-------------------|---------------3----|
B|-------------------|-------------------|---------------0----|
G|-------------------|-------------------|---------------0----|
D|-------------------|-------------------|---------------0----|
A|-------------------|-------------------|--------------------|
E|-------------------|-------------------|--------------------|

              pensé  en  escri  birle                   que
e|--2----2-------------|---------------3----|--2----2-------------|
B|--3----3-------------|---------------0----|--3----3-------------|
G|--2----2-------------|---------------0----|--2----2-------------|
D|--0----0-------------|---------------0----|--0----0-------------|
A|---------------------|--------------------|---------------------|
E|---------------------|--------------------|---------------------|

    nunca  sortié                    las trampas  del amor.
e|---------------3----|--2----2-------------|---------------3----|
B|---------------0----|--3----3-------------|---------------0----|
G|---------------0----|--2----2-------------|---------------0----|
D|---------------0----|--0----0-------------|---------------0----|
A|--------------------|---------------------|--------------------|
E|--------------------|---------------------|--------------------|






                            De   aquel  amoor
e|--2----2---2-0--0--0--0--|--2----2-----------3----|
B|--3----3---3-2--2--2--2--|--3----3-----------0----|
G|--2----2---2-2--2--2--2--|--4----4-----------0----|
D|--0----0---0-2--2--2--2--|--4----4-----------0----|
A|-------------0--0--0--0--|--2----2----------------|
E|-------------------------|-----------3-3--3-------|

         de    musica    ligera,
e|--2----2---2-0--0--0--0--|--2----2-----------3----|
B|--3----3---3-2--2--2--2--|--3----3-----------0----|
G|--2----2---2-2--2--2--2--|--4----4-----------0----|
D|--0----0---0-2--2--2--2--|--4----4-----------0----|
A|-------------0--0--0--0--|--2----2----------------|
E|-------------------------|-----------3-3--3-------|

                            nada nos  libra,
e|--2----2---2-0--0--0--0--|--2----2-----------3----|
B|--3----3---3-2--2--2--2--|--3----3-----------0----|
G|--2----2---2-2--2--2--2--|--4----4-----------0----|
D|--0----0---0-2--2--2--2--|--4----4-----------0----|
A|-------------0--0--0--0--|--2----2----------------|
E|-------------------------|-----------3-3--3-------|

               nada máas      quedaa”.
e|--2----2---2-0--0--0--0--|--2----2-----------3----|
B|--3----3---3-2--2--2--2--|--3----3-----------0----|
G|--2----2---2-2--2--2--2--|--4----4-----------0----|
D|--0----0---0-2--2--2--2--|--4----4-----------0----|
A|-------------0--0--0--0--|--2----2----------------|
E|-------------------------|-----------3-3--3-------|

                            Primer solo 1:09
e|-2----2---2-0--0--0--0-|----------------------------------------------------------|
B|-3----3---3-2--2--2--2-|----------------------------------------------------------|
G|-2----2---2-2--2--2--2-|----------------------------------------------------------|
D|-0----0---0-2--2--2--2-|--------------------------------------2-4-2-0-----7-7---7-|
A|------------0--0--0--0-|-2-2-4-5-4h5-4-2-0-0h2-0-------2-2-4-5-------4-2-5---7/9--|
E|-----------------------|------------------2-----2-0-2-0---------------------------|

   “No  le enviareé                 cenizas de...    rosas,
e|---------------3----|--2----2-------------|---------------3----|
B|---------------0----|--3----3-------------|---------------0----|
G|---------------0----|--2----2-------------|---------------0----|
D|---------------0----|--0----0-------------|---------------0----|
A|--------------------|---------------------|--------------------|
E|--------------------|---------------------|--------------------|

                  ni     pienso evitar                  un roce
e|--2----2-------------|---------------3----|--2----2-------------|
B|--3----3-------------|---------------0----|--3----3-------------|
G|--2----2-------------|---------------0----|--2----2-------------|
D|--0----0-------------|---------------0----|--0----0-------------|
A|---------------------|--------------------|---------------------|
E|---------------------|--------------------|---------------------|

   secree... to.
e|---------------3----|--2----2---2-0--0--0--0--|
B|---------------0----|--3----3---3-2--2--2--2--|
G|---------------0----|--2----2---2-2--2--2--2--|
D|---------------0----|--0----0---0-2--2--2--2--|
A|--------------------|-------------0--0--0--0--|
E|--------------------|-------------------------|

    De   aquel   amoor            de  musica    li
e|--2----2-----------3----|--2----2---2-0--0--0--0--|
B|--3----3-----------0----|--3----3---3-2--2--2--2--|
G|--4----4-----------0----|--2----2---2-2--2--2--2--|
D|--4----4-----------0----|--0----0---0-2--2--2--2--|
A|--2----2----------------|-------------0--0--0--0--|
E|-----------3-3--3-------|-------------------------|






    geraa,
e|--2----2-----------3----|--2----2---2-0--0--0--0--|
B|--3----3-----------0----|--3----3---3-2--2--2--2--|
G|--4----4-----------0----|--2----2---2-2--2--2--2--|
D|--4----4-----------0----|--0----0---0-2--2--2--2--|
A|--2----2----------------|-------------0--0--0--0--|
E|-----------3-3--3-------|-------------------------|

    Nada  nos  libra,                      nada maás
e|--2----2-----------3----|--2----2---2-0--0--0--0--|
B|--3----3-----------0----|--3----3---3-2--2--2--2--|
G|--4----4-----------0----|--2----2---2-2--2--2--2--|
D|--4----4-----------0----|--0----0---0-2--2--2--2--|
A|--2----2----------------|-------------0--0--0--0--|
E|-----------3-3--3-------|-------------------------|

    quedaa”.
e|--2----2-----------3----|--2----2---2-0--0--0--0--|
B|--3----3-----------0----|--3----3---3-2--2--2--2--|
G|--4----4-----------0----|--2----2---2-2--2--2--2--|
D|--4----4-----------0----|--0----0---0-2--2--2--2--|
A|--2----2----------------|-------------0--0--0--0--|
E|-----------3-3--3-------|-------------------------|

  Solo principal 1:56
e|---7---------5-----------7----|-------5-----------7-------5--(5)/-|
B|------------------------------|-----------------------------------|
G|------------------------------|-----------------------------------|
D|------------------------------|-----------------------------------|
A|------------------------------|-----------------------------------|
E|------------------------------|-----------------------------------|

e|-/2-------0-----2-----2--|---2h5p0----0-----2-------5-5h7--7-7/12-|
B|-------------------------|----------------------------------------|
G|-------------------------|----------------------------------------|
D|-------------------------|----------------------------------------|
A|-------------------------|----------------------------------------|
E|-------------------------|----------------------------------------|

e|--12----10-----9-----10--|--12--10---9-----------9-------------|
B|-------------------------|--------------12----------12—-12p10--|
G|-------------------------|-------------------------------------|
D|-------------------------|-------------------------------------|
A|-------------------------|-------------------------------------|
E|-------------------------|-------------------------------------|

e|-----------------------------------------------|
B|--10h12p10--------10h12p10--------10h12p10-----|
G|-----------(9)-9-----------(9)-9-----------(9)-|
D|-----------------------------------------------|
A|-----------------------------------------------|
E|-----------------------------------------------|

e|-----------------------------------------|--14----12--14----12—-14--|
B|--—-12h14p12----------10h12p10-----------|--------------------------|
G|-9-----------(11)-11-----------(9)-9-----|--------------------------|
D|-----------------------------------------|--------------------------|
A|-----------------------------------------|--------------------------|
E|-----------------------------------------|--------------------------|

e|--15—-14---12-----12---14---|--15----14---12----------|
B|----------------------------|--------------------15---|
G|----------------------------|-------------------------|
D|----------------------------|-------------------------|
A|----------------------------|-------------------------|
E|----------------------------|-------------------------|

                                      *...
e|-----------12-----------|-----------------------------|
B|--14--15--------15—14---|-(14)/7----7—7h10p7-----7----|
G|------------------------|---------------------9-------|
D|------------------------|-----------------------------|
A|------------------------|-----------------------------|
E|------------------------|-----------------------------|

                                           ...*
e|---------------------|---------------------------|
B|--12------10----7----|--7--------7h10p7-----7----|
G|---------------------|-------------------9-------|
D|---------------------|---------------------------|
A|---------------------|---------------------------|
E|---------------------|---------------------------|

e|-------------------------------------------------------|
B|--10h12p10-----12h14p12-----14h15p14-----15h17p15------|
G|------------11-----------11-----------14-----------14--|
D|-------------------------------------------------------|
A|-------------------------------------------------------|
E|-------------------------------------------------------|

  Charangueo 2:42
e|--7---7-7-7-7-7-x-7--7-7-7-7-7-|
B|--7---7-7-7-7-7-x-8--8-8-8-8-8-|
G|--7---7-7-7-7-7-x-7--7-7-7-7-7-|
D|--9---9-9-9-9-9-x-9--9-9-9-9-9-|
A|-------------------------------|
E|-------------------------------|


e|--5---5-5-5-5-5/-x--9---9--9--9--9--9-|
B|--7---7-7-7-7-7/-x-10--10-10-10-10-10-|
G|--7---7-7-7-7-7/-x--9---9--9--9--9--9-|
D|--7---7-7-7-7-7/-x-11--11-11-11-11-11-|
A|--------------------------------------|
E|--------------------------------------|

e|--7---7-7-7-7-7-x-7--7-7-7-7-7-|
B|--7---7-7-7-7-7-x-8--8-8-8-8-8-|
G|--7---7-7-7-7-7-x-7--7-7-7-7-7-|
D|--9---9-9-9-9-9-x-9--9-9-9-9-9-|
A|-------------------------------|
E|-------------------------------|

e|--5---5-5-5-5-5/-x--9---9--9--9--9--9-|------------------------------|
B|--7---7-7-7-7-7/-x-10--10-10-10-10-10-|--12--------10----------12----|
G|--7---7-7-7-7-7/-x--9---9--9--9--9--9-|------------------------------|
D|--7---7-7-7-7-7/-x-11--11-11-11-11-11-|------------------------------|
A|--------------------------------------|------------------------------|
E|--------------------------------------|------------------------------|
                  nada   máas        queda,
-----------------------------------|-------------------------|
------10---------12------10—(10)/--|--/7-------5-----7----7--|
-----------------------------------|-------------------------|
-----------------------------------|-------------------------|
-----------------------------------|-------------------------|
-----------------------------------|-------------------------|

                        nada    más         que  daaa
e|----------------------------------------|--------------------------|
B|--7h10/7--5---7----10-10h12—--12-12/17--|--17----15----14----15----|
G|----------------------------------------|--------------------------|
D|----------------------------------------|--------------------------|
A|----------------------------------------|--------------------------|
E|----------------------------------------|--------------------------|

                        nada     más      quee daa”.
e|-------------------------------------|--------------------------|
B|--17--15--14----------14-------------|--------14----15----17----|
G|----------------16--------16—-16p14--|--16----------------------|
D|-------------------------------------|--------------------------|
A|-------------------------------------|--------------------------|
E|-------------------------------------|--------------------------|

e|--------------14----17----|--19/-----------------|-------------------|
B|--15----17----------------|----------------------|-------------------|
G|--------------------------|----------------------|-------------------|
D|--------------------------|----------------------|-------------------|
A|--------------------------|----------------------|-------------------|
E|--------------------------|----------------------|-------------------|

e|--(19)/-----------------|-------------------|--3----2-------------||
B|------------------------|-------------------|--0----3-------------||
G|------------------------|-------------------|--0----2-------------||
D|------------------------|-------------------|--0----0-------------||
A|------------------------|-------------------|---------------------||
E|------------------------|-------------------|---------------------||


ES LA MAMADA LA CANCION
CALIFIQUENLA
HAJ



************************************

| x    Dead note
| (n)  Ghost note
| h    Hammer-on
| p    Pull-off
| /    Slide up 

************************************
Suggest correction
comments
print report bad tab
5 comments total. Showing first comments. show 1 bad comment
-2 reply
yamaha182 302 Jun 09, 2007 04:55 PM

jajajajajaja te mamaste

-1 reply
yamaha182 302 Jun 09, 2007 04:56 PM

jajaja

guest
You may want to rate the tab now too:
select rating
Wanna post a correction for this tab? Suggest correction