Oops, an error
Loading. Please wait.

Ecos Bass Tab

version 1
version 1

Whole song

Interactive

119 views 3 this week
no commentswrite comment
1 2 3 4 5
3 more votes to show rating
add to favorites
launch autoscroll
font size
0
reset
guitar tuner
Autoscroll
slow
fast
+/-
esc
set tempo
stop
Help us to improve Ultimate-Guitar.com Take our survey!
×
Bueno otro lindo de bajo de Zeta....


El tema empieza con la guitarra y un fondo con teclados

0:34
"HOuuuuu...

g-----------------------------------------
D-----------------------------------------
A-----------------------------------------
E--3333333333333333--1111111111111111111--


0:48

"Ecos,             los mismos instantes...

     P P   P P   P P   P P    P P   P P   P P   P P
g----7-9---7-9---7-9---7-9----4-5---4-5---4-5---4-5-
D---------------------------------------------------
A---------------------------3-----3-----3-----3-----
E--0-----0-----0-----0------------------------------


Ecos,                     cubriendo mi soledad..."
     P P   P P           P P   P P   P P   P P   P P
g----7-9---7-9-----------7-9---4-5---4-5---4-5---4-5-
D----------------------------------------------------
A--------------7-5-----------3-----3-----3-----3-----
E--0-----0---------7-5-0-----------------------------


1:15

"Estoy  moviendome...

g--------------------------------------
D--------------------------------------
A--------------------------------------
E--355-3355-355-3355-355-3355-355-3355-

 Con mis propios latidos...

g--------------------------------------
D--------------------------------------
A--------------------------------------
E--011-0011-011-0011-011-0011-011-0011-

 Llenando Vacios...

g--------------------------------------
D--------------------------------------
A--------------------------------------
E--133-1133-133-1133-133-1133-133-1133-

 Todo es tan igual, tan predecible, tan frio."

g--------------------------------------
D--------------------------------------
A--------------------------------------
E--011-0011-011-0011-011-0011-011-0011-


1:42

Frio,....

g-------------------------------
D-------------------------------
A--3----3----3-3-5-5----3-3-5-5-
E-------------------------------


1:56

"Ecos,               formas que se repiten...

     P P   P P   P P   P P    P P   P P   P P   P P
g----7-9---7-9---7-9---7-9----4-5---4-5---4-5---4-5-
D---------------------------------------------------
A---------------------------3-----3-----3-----3-----
E--0-----0-----0-----0------------------------------


 Ecos,                         saturan mis sueños..."
     P P   P P              P P   P P   P P   P P   P
g----7-9---7-9--------------7-9---4-5---4-5---4-5---5-
D-----------------------------------------------------
A---------------5_7-5-----------3-----3-----3-----3---
E--0-----0----------7-5-0-----------------------------


2:24

"Estoy  moviendome...

g--------------------------------------
D--------------------------------------
A--------------------------------------
E--355-3355-355-3355-355-3355-355-3355-

 Con mis propios latidos...

g--------------------------------------
D--------------------------------------
A--------------------------------------
E--011-0011-011-0011-011-0011-011-0011-

 Llenando Vacios...

g--------------------------------------
D--------------------------------------
A--------------------------------------
E--133-1133-133-1133-133-1133-133-1133-

 Todo es tan igual...

g--------------------------------------
D--------------------------------------
A--------------------------------------
E--011-0011-011-0011-011-0011-011-0011-

 Llenando Vacios...

g--------------------------------------
D--------------------------------------
A--------------------------------------
E--133-1133-133-1133-133-1133-133-1133

 Todo es tan normal...

g--------------------------------------
D--------------------------------------
A--------------------------------------
E--011-0011-011-0011-011-0011-011-0011-


Tan Frio huooo"

g---------------------------
D---------------------------
A--3----3--5----3--5--3--5--
E------------5-7------------


3:18
Hay un punteito de la viola y si escuchan de fondo el bajo hace esto

g----------------
D---5*__7__3*----  *dejar sonando un rato, se nota cuando desliza al
A----------------   La y baja de nuevo a Fa..
E----------------


3:33


g--------------------------------------
D--------------------------------------
A--------------------------------------
E--133-1133-133-1133-133-1133-133-1133-

g--------------------------------------
D--------------------------------------
A--------------------------------------
E--011-0011-011-0011-011-0011-011-0011-

"Llenando vacios...
          P                P
g--------------------------------------
D---------5----------------5-----------
A--------------------------------------
E--133-113-133-1133-133-113-133-1133---

 Llenando vacios...
                   P
g--------------------------------------
D------------------3-------------------
A--------------------------------------
E--011-0011-011-001-011-0011-011-0011--

                       Ecos...
                   P
g--------------------------------------
D------------------5-------------------
A--------------------------------------
E--133-1133-133-113-133-113-133-1133---


          P
g--------------------------------------
D---------3----------------------------
A--------------------------------------
E--011-001-011-0011-011-0011-011-0011--
                   P
g--------------------------------------
D------------------7-------------------
A--------------------------------------
E--355-3355-355-335-355-3355-355-3355--

 Llenando vacios...
                   P
g--------------------------------------
D------------------3-------------------
A--------------------------------------
E--011-0011-011-001-011-0011-011-0011--


El tema se va apagando con los mismos cambios de Fa a Sol
Escuchenlo para encontrar los tiempos..

----Marino Bria---Jesus Maria (Cba)--- MARIANOROCKEN@
Suggest correction
Give kudos to tab author, rate the tab!
1 2 3 4 5
comments
print report bad tab
guest
You may want to rate the tab now too:
select rating
Wanna post a correction for this tab? Suggest correction