Oops, an error
Loading. Please wait.

El Ritmo De Tus Ojos Bass

46 views 1 this week
no commentswrite comment
1 2 3 4 5
3 more votes to show rating
add to favorites
launch autoscroll
font size
0
reset
guitar tuner
×
Best way to learn
"El Ritmo De Tus Ojos"
Autoscroll
slow
fast
+/-
esc
set tempo
stop
Hola, en éste caso subo unas buenísismas líneas de bajo que en la versión
estudio no se aprecian porque tienen mucho efectos, ésta versión la saqué
cuando Soda se presentó en vivo en Badía y Compañía en 1988.
Igualmente está en el mismo tono y con las mismas notas que la versión
original. Que lo disfruten y siempre escuchar el tema para ver bien los
tiempos.

h= hammer on
p= pull off
s= slide
~= hacer sonar la cuerda


Intro Guitarra arpegiada y luego:

G----------------
D----------------
A---5-8-99-10s---
E----------------

G--------------------------
D--------------5-----------    (x3)
A------345-3-2-----2-------
E-1h3----------------3-----

G--------------------------
D--------------5-----------
A------345-3-2-----2-------
E-1h3----------------3-----

Verso I:
Muestrame tu cruz, el ritmo de tus ojos...

G--------------------------
D--------------5-----------    (x3)
A------345-3-2-----2-------
E-1h3----------------3-----

G--------------------------
D--------------5-----------
A------345-3-2-----2-------
E-1h3----------------3-----


Aquí no queda nada en pie, como un castigo oh oh...

G-------------------------------------------------------
D-----------------7-7p5---------------------5-----------
A-----------------------7--------------567----7p5-------
E--5-5-5-5-5-5-5----------5-5-5-5-5-5---------------7-3-

Puente

G-------------------------------------------
D--------------5----------------------5-----
A------345-3-2-----2---------345-3-2-----22-
E-1h3----------------3--1h3-----------------

Verso II:
Muestrame tu soul...el ritmo de tus ojos...

G----------------
D----------------    (x2)
A-----5--3--2----
E----------------

el amor no es tan certero nooo, como éste tiempo hipnótico.

G------------------------------------------------
D-------------------5----------------------5-----
A---------345-3-2------2----------345-3-2-----22-
E-3--1h3------------------3--1h3-----------------

Algún consuelo debe haber, algún abrigo

G-------------------------------------------------------
D--------------7----7-7P5----------------------5-----5-7-
A-------------------------7--------------567------7------
E--5-5-5-5-5-5---5----------5-5-5-5-5-5----------------


te doy palabras de placer, hablarte sucio...al oído.

G-----------------------------------------------------
D-----------------7-7p5-----------------------5-------
A-------------------------7---------------567---7p5---
E--5-5-5-5-5-5-5-------------5-5-5-5-5-5------------7-


Coro:
Tienes el cocktail que envenenará, mi soledad

G--------------------
D--------------------     (x2)
A----------3-1-1h3-3-
E-3--1h3-------------

Verso III:
Un flash sobre tu rouge, el ritmo de tus ojos...

G----------------
D----------------    (x2)
A-----5--3--2----
E----------------

impulso homicida, escena repetida

G------------------------------------------------
D-------------------5----------------------5-----
A---------345-3-2------2----------345-3-2-----22-
E-3--1h3------------------3--1h3-----------------

Aquí no queda nada en pie, como un castigo oh oh...

G-------------------------------------------------------
D-----------------7-7p5---------------------5-----------
A-----------------------7--------------567----7p5-------
E--5-5-5-5-5-5-5----------5-5-5-5-5-5---------------7-3-

Repite Coro:
Tienes el cocktail que envenenará, mi soledad

G--------------------
D--------------------     (x2)
A----------3-1-1h3-3-
E-3--1h3-------------


Repite Puente:

G--------------------------------------------
D----------------5------------------------5--
A-------345-3-2-----2------------345-3-2-----
E-3-1h3------------------3--1h3--------------

Estoy sólo y con mis botas llenas...de lluvia

G----------------------------------------
D----------------------5---------------5-
A----2~-----------235--------------235---
E-5~-----3-3---5-----------3-3--5--------

Y vos bailando con las mesdias hasta la rodilla

G----------------------------------------
D----------------------5---------------5-
A-----------------235--------------235---
E-0~-1~--3-3---5-----------3-3--5--------

Todo es una veloz película muda...

G----------------------------------------
D----------------------5---------------5-
A----2~-----------235--------------235---
E-5~-----3-3---5-----------3-3--5--------

Sé cuando mientes, sé cuando duda-as

G------------------------------
D----------------------5-------
A-----------------235----------
E-0~-1~--3-3---5-----------3-3-


G-------------------------------------------------------
D-----------------7-7p5---------------------5-----------
A-----------------------7--------------567----7p5-------
E--5-5-5-5-5-5-5----------5-5-5-5-5-5---------------7-3-


Repite Coro:
Tienes el cocktail que envenenará, mi soledad
Tienes el cocktail que envenenará

G--------------------
D--------------------     (x4)
A----------3-1-1h3-3-
E-3--1h3-------------

Tienes el cocktail que envenenará, mi soledad
Tienes el cocktail que envenenará...y es el ritmo de tus ojos.

G--------------------
D--------------------     (x4)
A----------3-1-1h3-3-
E-3--1h3-------------

Final:

G------------------------
D-----------------5------
A-----------235----------
E--3-3---5-----------3-3-
Suggest correction
Give kudos to tab author, rate the tab!
1 2 3 4 5
comments
print report bad tab
guest
You may want to rate the tab now too:
select rating
Wanna post a correction for this tab? Suggest correction