Oops, an error
Loading. Please wait.

Fue Tab

version 1
version 1

Whole song

275 views 3 this week
no commentswrite comment
1 2 3 4 5
2 more votes to show rating
add to favorites
launch autoscroll
font size
0
reset
how to read this tab
guitar tuner
×
Best way to learn
"Fue"
Autoscroll
slow
fast
+/-
esc
set tempo
stop
Esta versión es la del recital Me Verás Volver 2007 ,
espero que les sirva , la saqué lo mejor posible. Saludos.

INTRO : C#m - C#m/B - F#m - A x4

Min 0.33
-4--6--6--5--5--4--4-------------
--5--5--5--5--5--5-5-------------
---------------------------------
---------------------------------
---------------------------------
---------------------------------


C#m   C#m/B         F#m  A
He llegado hasta el fin
C#m    C#m/B      F#m  A
con los brazos cansados
C#m   C#m/B     F#m  A
tantas veces te vi
C#m  C#m/B     F#m  A
simulando un olvido,

y eso paso
-4--6--6--5--5--4--4-------------
--5--5--5--5--5--5-5-------------
---------------------------------
---------------------------------
---------------------------------
---------------------------------


C#m     C#m/B           F#m  A
Me embriague hasta el vacio
C#m    C#m/B    F#m  A
con tu miel venenosa
C#m   C#m/B  F#m  A
fuiste mia y el hastio
C#m   C#m/B      F#m  A
nos llevo al desengaño,

y eso paso
-4--6--6--5--5--4--4-------------
--5--5--5--5--5--5-5-------------
---------------------------------
---------------------------------
---------------------------------
---------------------------------

Fue
Min 1.56
E - F#add4* - F/B4* - E x2

Min 2.39
-4--6--6--5--5--4--4--4--4--6--6--5--5--4--4--4
--5--5--5--5--5--5--5--5--5--5--5--5--5--5--5-5
-----------------------------------------------
-----------------------------------------------
-----------------------------------------------
-----------------------------------------------


C#m    C#m/B          F#m  A
suaves telas sobre el piso,
C#m  C#m/B        F#m  A
una parte de la euforia
C#m  C#m/B  F#m  A
y lo mas resbaladizo
C#m  C#m/B       F#m  A
es creernos sin memoria

y eso paso

Min 3.23
-4--6--6--5--5--4--4-------------
--5--5--5--5--5--5-5-------------
---------------------------------
---------------------------------
---------------------------------
---------------------------------

Min 3.30
E - F#add4* - F/B4* - E x6

Fue

Min 4.16
-4--6--6--5--5--4--4-------------
--5--5--5--5--5--5-5-------------
---------------------------------
---------------------------------
---------------------------------
---------------------------------

F#add4*    F/B4*
1-----    0-----
1|||00    1|||00
|||2||    |||2||
|34|||    |34|||
||||||    ||||||
||||||    ||||||
------    ------
Suggest correction
Give kudos to tab author, rate the tab!
1 2 3 4 5
comments
print report bad tab
guest
You may want to rate the tab now too:
select rating
Wanna post a correction for this tab? Suggest correction