Oops, an error
Loading. Please wait.

Juegos De Seduccion Bass Tab

version 1
version 1

Whole song

Interactive

8,143 views 9 this week
no commentswrite comment
1 2 3 4 5
please rate
add to favorites
launch autoscroll
font size
0
reset
guitar tuner
Autoscroll
slow
fast
+/-
esc
set tempo
stop
Help us to improve Ultimate-Guitar.com Take our survey!
×
Author
INTRO:
G|----------------------|
D|----------------------| 2x
A|--2-------------------|
E|------2----5----0-----|

ESTROFA:
G|--------------------------------------------------------------------------|
D|--------------------------------------------------------------------------|
A|--2---------------------2---------------5-----4---------------------------|
E|------2----5----0------------2-----5--------------------------------------|

CORO:
G|------------------------------------------------|
D|------------------------------------------------|
A|---2--2-2---------------------------------------| 4x
E|------------0---0-0---5--5-5----3--3-3----------|

estrofa, coro...

G|---------------------------------|
D|---------------------------------|
A|---------------------------------| 2x
E|---2----5--4----2----5--7--------|

PUNTEO:
G|------------------------------------------------|
D|------------------------------------------------|
A|------------------------2-2---2---2---2---------| 4x
E|---5-5---5---5---5-2--------------------4-------|

G|--------------------------------------------------------------------------|
D|--------------------------------------------------------------------------|
A|--------------------------------------------------------------------------|
E|--3-3--3--3--3-3---2-2--2--2--2-2----3-3--3--3--3-3----4-4--4--4--4-4-----|

coro,....

 FINAL:
G|--------------------------------------------------------------------------|
D|--------------------------------------------------------------------------|
A|--2---------------------2---------------5-----4----5---4---5---4----------|
E|------2----5----0------------2-----5-------------------------------2------|

G|-----------------------------------------|
D|-----------------------------------------|
A|-----------------------------------------|
E|---3-----2----3----4----3----2----3------|
Suggest correction
Give kudos to tab author, rate the tab!
1 2 3 4 5
comments
print report bad tab
guest
You may want to rate the tab now too:
select rating
Wanna post a correction for this tab? Suggest correction