Oops, an error
Loading. Please wait.

Luna Roja Tab

version 1
version 1

Live

Interactive

4,241 views 15 this week
no commentswrite comment
1 2 3 4 5
please rate
add to favorites
launch autoscroll
font size
0
reset
how to read this tab
guitar tuner
Autoscroll
slow
fast
+/-
esc
set tempo
stop
Help us to improve Ultimate-Guitar.com Take our survey!
×
Author
Banda: Soda Stereo
Cancion: Luna Roja (en vivo)
Transcrito por: Carlos Ramirez
Afinacion: EADGBe


INTRO:
e|----------------------------------|
B|---------2----5--3--2---2---------|
G|---------2----2--2--2---2---------| (2)
D|---------2----2--2--2---4---------|
A|---------0----0--0--0---2---------|
E|----------------------------------|

VERSO:
e|---------------------------------------------------------------|
B|--2--5-3-2---2-----------2-------2---5-3-2---2---2-------------|
G|--2--2-2-2---2-----------2-------2---2-2-2---2---2-------------|
D|--2--2-2-2---4-----------3-------2---2-2-2---4---3-------------|
A|--0--0-0-0---0-----------0-------0---0-0-0---0---0-------------|
E|---------------------------------------------------------------|
    el     salio   dejo la casa vacia


e|---------------------------------------------------------------|
B|--2--5-3-2----2----2-----2-----2------2------------------------|
G|--2--2-2-2----2----2-----2-----2------2------------------------|
D|--2--2-2-2----4----3-----2-----1------0------------------------|
A|--0--0-0-0----0----0-----0-----0------0------------------------|
E|---------------------------------------------------------------|
y se-en    -trego al suave aire del desierto y entonces la


CORO:
e|---------------------------------------------------------------|
B|--2--5-3-2---2-----------2-------2---5-3-2---2---2-------------|
G|--2--2-2-2---2-----------2-------2---2-2-2---2---2-------------|
D|--2--2-2-2---4-----------3-------2---2-2-2---4---3-------------|
A|--0--0-0-0---0-----------0-------0---0-0-0---0---0-------------|
E|---------------------------------------------------------------|
   vio                la luna    roja              sobre el mar
  negro                  luna    roja


verso, coro

   (I)
e|-----3-----2-----------|
B|-----2-----2-----------|
G|-----2-----2-----------| (4)
D|-----2-----------------|
A|-----------------------|
E|-----------------------|

verso, coro , (I)


e|--5--------------7-----------------8-----------------12----------|
B|--8>10<9>10<9>10-10>12<11>12<11>12-11>13<12>13<12>13-15>17<16>17-|
G|-----------------------------------------------------------------| (6)
D|-----------------------------------------------------------------|
A|-----------------------------------------------------------------|
E|-----------------------------------------------------------------|

e|---12-----------|
B|---15>17--------|
G|----------------| etc.
D|----------------|
A|----------------|
E|----------------|


e|------3-----------|
B|------2-----------|
G|------2-----------| repetir muchas veces...
D|------2-----------|
A|------0-----------|
E|------------------|

>= alzar la cuerda
<= bajar la cuerda
Suggest correction
Give kudos to tab author, rate the tab!
1 2 3 4 5
comments
print report bad tab
guest
You may want to rate the tab now too:
select rating
Please do not post tabs as comments. Select "correction" instead!