Oops, an error
Loading. Please wait.

Musica Ligera Bass Tab

version 1
version 1

Whole song

Interactive

9,431 views 9 this week
no commentswrite comment
1 2 3 4 5
3 more votes to show rating
add to favorites
launch autoscroll
font size
0
reset
guitar tuner
Autoscroll
slow
fast
+/-
esc
set tempo
stop
Help us to improve Ultimate-Guitar.com Take our survey!
×
Author
Me costo trabajo pero es la mejor tablatura que hay, todavia me faltan varios 
detalles pero disfrutenla.
Nota: Presten atencion en todos los compaces no todos son iguales
Nota2: Es de la cancion de estudio =D
Se reciben comentarios y sugerencias...drlbs@hotmail.com. 
Dahvk DaroL

Intro
Dejen que suene la guitarra y entran (00:05)
G-------4-2---------------|
D-----------4-------------|
A-------------5--9-7------|
E--------------------7----|

(00:07)                       x3
G---------------------------|
D------------4s5------------|
A--2-2-----------5----------|
E------0h2-2--------0h5-5-5-|
Aqui da el cambio, escuchen bien el bajo para que la saquen bien
G---------------------------|
D------------4s5-4----------|
A--2-2--------------7-5-----|
E------0h2-2------------7-5-|


Entra la voz (00:23)           x3
G----------------------------|
D----------------------------|
A--2-2-----------5-5---------|
E------0h2-2-2-2-----0h5-5-5-|
Segundo cambio (00:35)
G--------------------------|
D--------------------2-----|
A--2-2-------5-5-4-4---4-2-|
E------0h2-2---------------|


Algun tiempo atras...         x3 
G---------------------------|
D------------4s5------------|
A--2-2-----------5----------|
E------0h2-2--------0h5-5-5-|
(00:50)
G---------------------------|
D------------4s5-4----------|
A--2-2--------------7-5-----|
E------0h2-2------------7-5-|


Coro                         x3
G---------------------------|
D------------4s5------------|
A--2-2-----------5----------|
E------0h2-2--------0h5-5-5-|
Da el cambio (01:06)
G---------------------------|
D------------4s9------------|
A--2-2-----------12-9-7-5---|
E------0h2-2--------------7-|



Bass solo  (01:09)

G--16-16-18-19----18-19-18-16-14-----16--14-----------------|
D--------------------------------16----------16-14-16-14-14-|
A--14-14-16-17----16-17-16-14-12-----14--12-----------------|
E--------------------------------14----------14-12-14-12-12-|

G--16-16-18-19---21-23-21-19-18-16--|
D-----------------------------------|
A--14-14-16-17---19-21-19-17-16-14--|
E-----------------------------------|



No le enviare...
G--------------------------|
D-----------4s5------------|
A--2-2----------5----------|
E------0h2-2------0h5-5-5--|

G----------------------------|
D------------4s5-------------|
A--2-2-----------5-4-5-7-7---|
E------0h2-2---------------7-|

G--------------------------|
D-----------4s5------------|
A--2-2----------5----------|
E------0h2-2------0h5-5-5--|

G---------------------------|
D------------4s9------------|
A--2-2-----------12-9-7-5---|
E------0h2-2--------------7-|



Coro                         x3
G---------------------------|
D------------4s5------------|
A--2-2-----------5----------|
E------0h2-2--------0h5-5-5-|

G---------------------------|
D------------4s9------------|
A--2-2-----------12-9-7-5---|
E------0h2-2--------------7-|



Solo de guitarra (01:55)
                              x3
G----------------------------|
D----------------------------|
A--2-2-----------5-5---------|
E------0h2-2-2-2-----0h5-5-5-|

G---------------------------|
D------------4s5-4----------|
A--2-2--------------7-5-----|
E------0h2-2------------7-5-|

G---------------------------|
D------------4s5------------|
A--2-2-----------5----------|
E------0h2-2--------0h5-5-5-|
                              x2
G----------------------------|
D----------------------------|
A--2-2-----------5-5---------|
E------0h2-2-2-2-----0h5-5-5-|

G---------------------------|
D------------4s5-4----------|
A--2-2--------------7-5-----|
E------0h2-2------------7-5-|


Coro                         x3
G---------------------------|
D------------4s5------------|
A--2-2-----------5----------|
E------0h2-2--------0h5-5-5-|

G---------------------------|
D------------4s9------------|
A--2-2-----------12-9-7-5---|
E------0h2-2--------------7-|

Se que aqui es diferente pero lo sigo sacando, mientras repitan este
                             x2
G---------------------------|
D------------4s5-4----------|
A--2-2----------------------|
E------0h2-2--------0h5-5-5-|

Nada mas queda...            x3
G---------------------------|
D------------4s5------------|
A--2-2-----------5----------|
E------0h2-2--------0h5-5-5-|

Outro
G----------------------------------------|
D------------4s5-4-----------------------|
A--2-2-------------5--7-5----------------|
E------0h2-2--------------5-7--------3-2-|
Suggest correction
Give kudos to tab author, rate the tab!
1 2 3 4 5
comments
print report bad tab
guest
You may want to rate the tab now too:
select rating
Wanna post a correction for this tab? Suggest correction