Oops, an error
Loading. Please wait.

Ojo De La Tormenta Bass

177 views 3 this week
no commentswrite comment
1 2 3 4 5
3 more votes to show rating
add to favorites
launch autoscroll
font size
0
reset
guitar tuner
×
Best way to learn
"Ojo De La Tormenta"
Autoscroll
slow
fast
+/-
esc
set tempo
stop
Temaso y con una onda tremenda para la relajacion del oido...

0:01

g------------------------------------
D------------------------------------
A---------------------57------------- (X2)
E--2-20-0/66-657-55-57--5-555-5/7/5--

0:22

g-------------------------------------------------------
D-------------------------------------------------------
A--7-7/14/12/14*--7-77/14/12/14*--7-99-9-99976-79--99---
E---------------------------------------------9---9--9--

g-------------------------------------------------------
D-------------------------------------------------4-----
A--7-7/14/12/14*--7-77/14/12/14*--7-99-9-99976-----4/7--
E---------------------------------------------9/2-------

0:42
Estrofa

"Calente la cama y te di de comer
 Mi principe no se da por vencido... Sobrevolando.."

g-------------------------------------------------------
D-------------------------------------------------------
A--7-7/14/12/14*--7-77/14/12/14*--7-99-9-99976-79--99---
E---------------------------------------------9---9--9--

g-------------------------------------------------------
D-------------------------------------------------------
A--7-7/14/12/14*--7-77/14/12/14*--7-9-9-679-9-9-679/----
E-------------------------------------------------------


1:02
Estribillo

"El ojo de la tormenta, mi ser
 siempre encuentras la calma para ver"

g-------------------------------------------------------------------
D-------------------------------------------------------------------
A-2-2-2/5555-4444--2222-1111-00000--012-22-5555-4444-3333-2222------
E-----------------2----------------2--------------------------22222-


1:23
Estrofa

"Va girando a tu alrededor como la tierra
 La tierra es el mundo, el mundo es la bola, la bola es tu juego."

g-------------------------------------------------------
D-------------------------------------------------------
A--7-7/14/12/14*--7-77/14/12/14*--7-99-9-99976-79--99---
E---------------------------------------------9---9--9--

g--------------------------------------------------------
D--------------------------------------------------------
A--7-7/14/12/14*--7-77/14/12/14*--7-9-9-7-99-9-7-7/9/7/9-
E--------------------------------------------------------


1:41
Estribillo

"Ahora cierra los ojos, mi ser
 Este fue un dia agitado ya lo se"

g--------------------------------------------------------------
D--------------------------------------------------------------
A-2-2-2/5555-4444--2222-1111-00000--012-22-5555-4444-3333-2222-
E-----------------2----------------2---------------------------


2:00

"No hay nada, nada a lo que debas temer...

g------------------------
D------------------------
A--------00000--44444/---
E-2222222----------------


g------------------------------------
D------------------------------------
A---------------------57------------- (X2)
E--2-20-0/66-657-55-57--5-555-5/7/5--


g----------------------------------------------------------
D------------------------------------11-9-11------11-9-11--
A--7-7/14/12/14*--7-77/14/12/14*--9-9--------99-9----------
E----------------------------------------------------------

g------------------------------------------------------------
D------------------------------------11-9-10-11----11-11-----
A--7-7/14/12/14*--7-77/14/12/14*--9-9-----------9-9--9--9-7--
E------------------------------------------------------------

g-------------------------------------------11-------------
D------------------------------------11-9-11---------------
A--7-7/14/12/14*--7-77/14/12/14*--9-9---------9-7-9-9/-----
E----------------------------------------------------------


2:58

"Regrese a mi pieza y encendi la tv
 En esta hiperhistoria todos quieren flash. Y todo es algo para ver"

g--------------------------------------------------------------------
D--------------------------------------------------------------------
A--555555555-444444-22-200-0/66-679--555555555-444444/-7777777777777-
E--------------------------------------------------------------------


3:18
Estribillo

"El ojo de la tormenta, mi ser
 Centro del centro es la ausencia tu poder"

g--------------------------------------------------------------
D--------------------------------------------------------------
A-2-2-2/5555-4444--2222-1111-00000--012-22-5555-4444-3333-2222-
E-----------------2----------------2---------------------------

"Es mas, mas de lo que puedes creer...

g------------------------
D------------------------
A--------00000--44444/---
E-2222222----------------

                     Mas... Mas..."
g------------------------------------
D------------------------------------
A---------------------57-------------
E--2-20-0/66-657-55-57--5-555-5/7/5--

                     Mas... Mas..."
g------------------------------------
D------------------------------------
A---------------------57-------------
E--2-20-0/66-657-55-57--5-555-5/7/5--


g---------------------------
D----------------9-99-976---
A------------------------9--  (X2)
E--2-20-0/66-657------------


Reconozco q hay algunas partes medias dudosas, pero es cuestion de
Perseverancia.........

               ----------Mariano Bria----------
               --------Jesus Maria Cba---------
               ----MaRiAnOrOcKeN@
Suggest correction
Give kudos to tab author, rate the tab!
1 2 3 4 5
comments
print report bad tab
guest
You may want to rate the tab now too:
select rating
Wanna post a correction for this tab? Suggest correction