Oops, an error
Loading. Please wait.

Ojo De La Tormenta Tab

225 views 1 this week
no commentswrite comment
1 2 3 4 5
2 more votes to show rating
add to favorites
launch autoscroll
font size
0
reset
how to read this tab
guitar tuner
×
Best way to learn
"Ojo De La Tormenta"
Autoscroll
slow
fast
+/-
esc
set tempo
stop
Notaciones:

[] : lo que pongo entre corchetes se toca sin presionar las cuerdas
() : lo que pongo entre paréntesis es parte del acorde pero
     no hay que tocar esas cuerdas con la púa
/  : ligado


RIFF 1 :

e|--[2]-[2]-2-2-2-(2)-2--|
B|--[2]-[2]-2/4-2--2--2--|
G|-----------------4-----|
D|-----------------------|
A|-----------------------|
E|-----------------------|

RIFF 2 :

e|--(0)-0--(0)-(0)--0----|
B|--(0)-0--(0)-(0)--0----|
G|---3--3--(3)-(3)--3----|
D|---4--4--(4)-(4)--4----|
A|---4-(4)--4---4--(4)---|
E|---2-(2)--2---0--(0)---|

RIFF 3 :

e|------------0-0-0-0-0-0---|
B|------------0-0-0-0-0-0---|
G|--3-3-3-3-3-2-4-2-1-2-1---|
D|--4-4-4-4-4-2-2-2-2-2-2---|
A|--1-1-1-2-4---------------|
E|--------------------------|


repite RIFF 1
repite RIFF 2

RIFF 4:

e|------------0-0--0--0-0-0-0-0--|
B|------------0-14-0--0-0-0-0-0--|
G|--3-3-3-3-3-1-13-13-1-2-1-2-1--|
D|--4-4-4-4-4-2-14-14-2-2-2-2-2--|
A|--1-1-1-2-4-0-0--0--0-0-0-0-0--|
E|------------0-0--0--0-0-0-0-0--|


e|--0----------------------0---------------|
B|--7----------------------7---------------|
G|--8----------------------6---------------|
D|--6----------------------8---------------|
A|--7----------------------7---------------|
E|-----------------------------------------|

      Calenté la cama y te dí de comer
 mi príncipe no se da por vencido sobrevolando


e|--0-------0----------0--|
B|--0-------0----------0--|
G|--8-------11---------9--|
D|--9-------12---------11-|
A|--9-------12---------11-|
E|--7-------10---------9--|

     el ojo de la tormenta

e|--0--0---0---0--0--0--0--0---|
B|--0--0---0---0--0--0--0--0---|
G|--3--8---8---6--6--6--7--8---|
D|--4--9---9---7--7--7--8--9---|
A|--4--9---9---7--7--7--8--9---|
E|--2--7---6---5--4--5--6--7---|

    mi ser

e|--0----------0-----------0-----0----0-----0---|
B|--0----------0-----------0-----0----0-----0---|
G|--8----------11----------9-----9----8-----3---|
D|--9----------12----------11----10---9-----4---|
A|--9----------12----------11----10---9-----4---|
E|--7----------10----------9-----8----7-----2---|

     siempre encuentras la calma para ver


e|--0---------------------------------0---------------|
B|--7---------------------------------7---------------|
G|--8---------------------------------6---------------|
D|--6---------------------------------8---------------|
A|--7---------------------------------7---------------|
E|----------------------------------------------------|

      va girando a tu alrededor       como la tierra
 la tierra es el mundo el mundo es la bola y la bola es tu juego

e|--0-------0----------0--|
B|--0-------0----------0--|
G|--8-------11---------9--|
D|--9-------12---------11-|
A|--9-------12---------11-|
E|--7-------10---------9--|

      Ahora cierra los ojos

e|--0--0---0---0--0--0--0--0---|
B|--0--0---0---0--0--0--0--0---|
G|--3--8---8---6--6--6--7--8---|
D|--4--9---9---7--7--7--8--9---|
A|--4--9---9---7--7--7--8--9---|
E|--2--7---6---5--4--5--6--7---|
    mi ser

e|--0----------0-----------0-----0----0-----0---|
B|--0----------0-----------0-----0----0-----0---|
G|--8----------11----------9-----9----8-----3---|
D|--9----------12----------11----10---9-----4---|
A|--9----------12----------11----10---9-----4---|
E|--7----------10----------9-----8----7-----2---|

   este fue un dia      agitado ya lo se


e|------0----4------------------------|
B|------0----5------------------------|
G|------6----6------------------------|
D|------7----6------------------------|
A|------7----4------------------------|
E|------5----4------------------------|

 no hay nada nada a lo que debas temer

RIFF 2
RIFF 3
RIFF 2
RIFF 4

e|--0-----0----|
B|--7-----7----|
G|--8-----6----|
D|--6-----8----|
A|--7-----7----|
E|-------------| (x3)


e|-------------------------------------------------|
B|--7--------6------------------4---4--4--4--4-----|
G|--7--------6------------------4---4--4--4--4-----|
D|--7--------6------------------4---4--1--2--4-----|
A|--5--------4------------------2---0--------------|
E|-------------------------------------------------|

Regresé a mi pieza y encendi la tv

e|-----------------------------------------0--------|
B|--7---------------6----------------------0--------|
G|--7---------------6----------------------1--------|
D|--7---------------6----------------------2--------|
A|--5---------------4----------------------2--------|
E|-----------------------------------------0--------|

    en esta hiperhistoria todos quieren un flash y pocos algo para ver

e|--0-------0----------0--|
B|--0-------0----------0--|
G|--8-------11---------9--|
D|--9-------12---------11-|
A|--9-------12---------11-|
E|--7-------10---------9--|

     el ojo de la tormenta

e|--0--0---0---0--0--0--0--0---|
B|--0--0---0---0--0--0--0--0---|
G|--3--8---8---6--6--6--7--8---|
D|--4--9---9---7--7--7--8--9---|
A|--4--9---9---7--7--7--8--9---|
E|--2--7---6---5--4--5--6--7---|
    mi ser


e|--0----------0-------------0---------0----0-----0---|
B|--0----------0-------------0---------0----0-----0---|
G|--8----------11------------9---------9----8-----3---|
D|--9----------12------------11--------10---9-----4---|
A|--9----------12------------11--------10---9-----4---|
E|--7----------10------------9---------8----7-----2---|

 el centro del centro es la ausencia y tu poder

e|------0----4------------------------|
B|------0----5------------------------|
G|------6----6------------------------|
D|------7----6------------------------|
A|------7----4------------------------|
E|------5----4------------------------|

     es más  más de lo que puedes creer


RIFF 2
RIFF 3
RIFF 2
RIFF 4
RIFF 1

e|--0--|
B|--0--|
G|--3--|
D|--4--|
A|--4--|
E|--2--|
Suggest correction
Give kudos to tab author, rate the tab!
1 2 3 4 5
comments
print report bad tab
guest
You may want to rate the tab now too:
select rating
Wanna post a correction for this tab? Suggest correction