Oops, an error
Loading. Please wait.

Persiana Americana Tab

version 1
version 1

Intro

Whole song

Interactive

113,287 views 117 this week
2 commentsread comments
1 2 3 4 5
worth learning
x 11
add to favorites
launch autoscroll
font size
0
reset
how to read this tab
guitar tuner
Tab Pro tools
  • play this tab
  • loop segment
  • change instrument
  • show fretboard
  • metronome
Autoscroll
slow
fast
+/-
esc
set tempo
stop
Contributor
-=Intro=- 
  D    G    D    G    Bm  (x2)
e|-----------3----2----------------------3--2---------|]
B|--1---3------------3------1-----1---3---------3--1--|]
G|----------------------------------------------------|]
D|----------------------------------------------------|]
A|----------------------------------------------------|]
E|----------------------------------------------------|]

e|-----------3----2----------------14b--|]
B|--1---3------------3------0------14b--|]
G|--------------------------------------|]
D|--------------------------------------|]
A|--------------------------------------|]
E|--------------------------------------|]

          D                             
Yo te prefiero                          
 G        D    G       C   Bm           
fuera de foco, inalcanzable             
          D                             
yo te prefiero                          
G       D      G        C   Bm          
irreversible, casi intocable            

           Em        C                  
Tus ropas caen lentamente               
          Em          C                 
soy un espía un espectador              
         Em            C                 
y el ventilador desgarrándote            
             D                          
se que te excita pensar                 
                  G
hasta donde llegaré

                 C  G
Es difícil de creer
                      Em
creo que nunca lo podré saber
 D           C
solo así yo te veré
G                  Em
a través de mi persiana americana

D         G         D
Es una comedia agradable
       G      C   Bm
el instante previo
               D
es todo un desgaste
G      D       G            C  Bm
una necesidad más que un deseo

            Em             C
Estamos al borde de la cornisa
        Em        C
casi a punto de caer
            Em                C
no sientes miedo, sigues sonriendo
             D                            G
se que te excita pensar hasta donde llegare

            C            G
Difícil, difícil de creer
                      Em
creo que nunca lo podré saber
D           C
solo así yo te veré
Bm                 F             G
a través de mi persiana americana

-=Intro=-
e|-----------3----2----------------------3--2----------|]
B|--1---3------------3------1-----1---3---------3--1---|]
G|-----------------------------------------------------|]
D|-----------------------------------------------------|]
A|-----------------------------------------------------|]
E|-----------------------------------------------------|]

e|-----------3----2---------------------|]
B|--1---3------------3------0------14b--|]
G|--------------------------------------|]
D|--------------------------------------|]
A|--------------------------------------|]
E|--------------------------------------|]

           Em        C
Tus ropas caen lentamente
          Em          C
soy un espía un espectador
         Em            C
y el ventilador desgarrándote
             D                            G
se que te excita pensar hasta donde llegare


                 C  G
Es difícil de creer
                      Em
creo que nunca lo podré saber
 D           C      Bm                 F
solo así yo te veré a través de mi persiana americana


G                 C  G
lo que pueda suceder
                        Em
no gastes fuerzas para comprender
 D           C
solo así yo te veré
Bm                 F             G
a través de mi persiana americana

            C            G
Difícil, difícil de creer
                      Em
creo que nunca lo podré saber
D           C
solo así yo te veré
Bm                 F             G
a través de mi persiana americana

Espero sea d' su agrado, cualquier comentario o corrección ragarideath@hotmail.com
Tijuana, BC, México    Ramón Guillermo Galáz Rios 11/03/05'
comments
print report bad tab
2 comments total.
0 reply
Maki_ wrote on January 7 2014, 08:45 pm

buen tab gracias muy sencillo y es un temazo

0 reply
nehuen.dux wrote on November 11 2015, 11:14 am

el acorde de gustavo sobre el final del riff no es el de esta tab la la la la la

I want to post or [tab]
guest
You may want to rate the tab now too:
select rating
Please do not post tabs as comments. Select "correction" instead!