Oops, an error
Loading. Please wait.

Pic-Nic En El 4O. B Bass

151 views 1 this week
no commentswrite comment
1 2 3 4 5
3 more votes to show rating
add to favorites
×
Save as Personal and add changes to this tab that will be seen only by you. Learn more ›
×
You can save this tab as Personal to edit and correct it or add notes. All changes will be seen only by you. Learn more »
save as personal
new!
launch autoscroll
font size
0
reset
guitar tuner
Autoscroll
slow
fast
+/-
esc
set tempo
stop
Picnic en el 4to B
Doble Vida

INTRO x4

G ----------------------------------
D ----------------------------------
A -----------5-5-5---2-0-2-4-2------
E -0-0-5-5-5------------------------

G ----------------------------------
D ---------------------4------------
A -----------5-5-5---2---2-4-2------
E -0-0-5-5-5------------------------


VERSO 1

G ----------------------------------------------
D ----------------------------------------------
A ---------------------------5-5-5-5-5-5--4-4-4-
E -0-0-0-0-0-0--7-7-7-7-7-7---------------------

G -------------------
D -------------------
A -------------------
E -5-5-5--3-3-3--2-2-

G --------------------------------------------------------
D --------------------------------------------------------
A ----------------------------------------------4-4-4-----
E -0-0-0-0-0-0--10-10-10-10-10-9-7--5-5-5-5-5-5--------5/1


ESTRIBILLO 1   x2

G ----------------------------------
D ----------------------------------
A -----------5-5-5---2-0-2-4-2------
E -0-0-5-5-5------------------------

G ----------------------------------
D ---------------------4------------
A -----------5-5-5---2---2-4-2------
E -0-0-5-5-5------------------------

VERSO 2

(repetir esta línea cada nota cuantas veces sea necesario según el ritmo)

G -----------------------------------------------------------------------
D -----------------------------------------------------------------------
A -----------------------------------------5-5-5-5-5-5-5-5-5-5-4-4-4-4-4-
E -0-0-0-0-0-0-0-0-0-0--7-7-7-7-7-7-7-7-7--------------------------------

G -----------------
D -----------------
A -----------------
E -5-5-5-3-3-3-2-2-

G --------------------------------------------------------------
D --------------------------------------------------------------
A --------------------------------------------------------------
E -0-0-0-0-0-0-0-0-0-0-0-0-10-10-10-10-10-10-10-10-10-10-10-9-7-

G -------------------------------------------
D -------------------------------------------
A -------------------------4-4-4-4-4-4-------
E -5-5-5-5-5-5-5-5-5-5-5-5----------------5/1--

ESTRIBILLO 2 x2

G ----------------------------------
D ----------------------------------
A -----------5-5-5---2-0-2-4-2------
E -0-0-5-5-5------------------------

G ----------------------------------
D ---------------------4------------
A -----------5-5-5---2---2-4-2------
E -0-0-5-5-5------------------------

PUENTE

G -------------------------------------------------------
D ---------7-6-4-----------7-6-5----------7-6-4----------
A ---------------7-4-------------7-4------------7-4------
E -0---5---------------5---------------5--------------7--

         "ay no, esta no es mi noche..."
G --------------------
D --------------------
A -----7--6--2--------
E -5-------------5/1--

SOLO Y OUTRO

*Repetir hasta el final (fade out)*

G ----------------------------------
D ----------------------------------
A -----------5-5-5---2-0-2-4-2------
E -0-0-5-5-5------------------------

G ----------------------------------
D ---------------------4------------
A -----------5-5-5---2---2-4-2------
E -0-0-5-5-5------------------------


En la gira Me Verás Volver termina con "She Was"
de los Talking Heads; puedes usar el mismo final.
Suggest correction
Give kudos to tab author, rate the tab!
1 2 3 4 5
comments
print report bad tab
guest
Wanna post a correction for this tab? Suggest correction