Oops, an error
Loading. Please wait.

Por Que No Puedo Ser Del Jet Set Bass Tab

37 views 1 this week
no commentswrite comment
1 2 3 4 5
2 more votes to show rating
add to favorites
launch autoscroll
font size
0
reset
guitar tuner
Autoscroll
slow
fast
+/-
esc
set tempo
stop
Help us to improve Ultimate-Guitar.com Take our survey!
×
Author
Difficulty
intermediate
Canción: ¿Por Qué No Puedo Ser Del Jet Set?
Álbum: Soda Stereo
Compositor: Gustavo Cerati; Charly Alberti
Año: 1984

\= slide down

G|------------------------------|
D|--------------------------4-7-|
A|--------5-5--5--------5-5-----|
E|-5-5--5--------3-3--3---------|

G|--------------------------|
D|--------------------------|
A|--------5-5--5--------3-3-|
E|-5-5--5--------3-3--3-----|

G|-------------------------------|
D|----------------------7-7-4-7--|
A|--------5-5--5-----------------|
E|-5-5--5--------3-3--3----------|

G|---------------------------|
D|---------------------------|
A|--------5-5--5--------3-3-3|
E|-5-5--5--------3-3--3------|

Jet set...
G|-------------------------------|
D|----------------------4-7-4-7--|
A|--------5-5--5-----------------|
E|-5-5--5--------3-3--3----------|

G|--------------------------|
D|--------------------------|
A|--------5-5--5--------3-3-|
E|-5-5--5--------3-3--3-----|

G|------------------------------|
D|--------------------------4-7-|
A|--------5-5--5--------5-5-----|
E|-5-5--5--------3-3--3---------|

G|------------------------|
D|------------------------|
A|--------5-5--5--------3~|
E|-5-5--5--------3-3--3---|

Tengo mi agenda...
G|-7-5------------------|
D|-----7----------------|
A|-------5-5--5-7-5-3-4-|
E|----------------------| x3

Y en mi alquiler...
G|-7-5---9-7-5-9-7--7-8-|
D|-----7----------------|
A|----------------------|
E|----------------------|

Con esa gente...
G|-9--9-7----9--9-7-------|
D|--------9---------9-----|
A|--------------------5-7-|
E|------------------------|

Yo me codeo...
G|-9--9-7----9--9-7-------|
D|--------9---------9-----|
A|--------------------5-7-|
E|------------------------|

Tengo el bolsillo...
G|-9--9-7----9--9-7----9-----|
D|--------9---------9--------|
A|-----------------------5-7-|
E|---------------------------|

Pero al menos...
G|-9--9--9-9-9-|
D|-------------|
A|-------------|
E|-------------|

Jet Set...
G|------------------------------|
D|--------------------------4-7-| *antes de empezar esta parte Zeta hace un slide down
A|--------5-5--5--------5-5-----| 
E|-5-5--5--------3-3--3---------|

G|------------------------5-|
D|--------------------------|
A|--------5-5--5--------3---|
E|-5-5--5--------3-3--3-----|

G|-------------------------------|
D|----------------------7-7-4-7--|
A|--------5-5--5-----------------|
E|-5-5--5--------3-3--3----------|

G|------------------------|
D|------------------------|
A|--------5-5--5--------3-|
E|-5-5--5--------3-3--3---|

Es el sueño de mi vida...
G|-------------16-17-18-19-|
D|-17-18-19-20-------------|
A|-------------------------|
E|-------------------------|

Que una mujer...
G|-14-13-12-11-------------|
D|-------------15-14-13-13-|
A|-------------------------|
E|-------------------------|

Labios prohibidos...
G|-------------------------------|
D|-12-10----10-12-12-12-10-10-10-|
A|-------12----------------------|
E|-------------------------------|

Yo con mi auto...
G|-------------------------|
D|-------------------------|
A|-12-10----10-12----------|
E|-------12-------10-12-10-|

Caviar, champagne...
G|-7-8--9--9-7----9--9-7-------|
D|-------------9---------9-----|
A|-------------------------5-7-|
E|-----------------------------|

G|-9--9-7----9--9-7-------|
D|--------9---------9-----|
A|--------------------5-7-|
E|------------------------|

Que nivel...
G|-9--9-7----9--9-7----9-----|
D|--------9---------9--------|
A|-----------------------5-7-|
E|---------------------------|

Nene por favor...
G|-9--9--9-9-9-|
D|-------------|
A|-------------|
E|-------------|

Jet set...
G|------------------------------|
D|--------------------------4-7-|
A|--------5-5--5--------5-5-----|
E|-5-5--5--------3-3--3---------|

G|------------------------5-5-|
D|----------------------------|
A|--------5-5--5--------3-----|
E|-5-5--5--------3-3--3-------|

G|-------------------------------|
D|----------------------7-7-4-7--|
A|--------5-5--5-----------------|
E|-5-5--5--------3-3--3----------|
    
G|-------------------------------------|
D|-------------------------------------|
A|--------5-5--5-----------------2-----|
E|-5-5--5--------3-3--3-2-2-5-5----5-2-|

Está todo OK...
G|-----------------------------------|
D|-----2-2-5------4-4-7-7--7-4-4-----|
A|-3-3--------5-5----------------5-5-|
E|-----------------------------------|

Lo que para arriba...
G|--------------------------------|
D|---4-----2-5--5-5-4-5-4-5-5-5---|
A|-5---2-3------------------------|
E|------------------------------3-|

G|-------------------------|
D|-55-44-22-00-55-44-22-00-|
A|-------------------------|
E|-------------------------|

G|----------7\-|
D|----66-99----|
A|-77----------|
E|-------------|

Jet set...                           
G|------------------------------|    
D|--------------------------4-7-|    
A|--------5-5--5--------5-5-----|    
E|-5-5--5--------3-3--3---------|    
                                     
G|--------------------------|        
D|--------------------------|        
A|--------5-5--5--------3-3-|        
E|-5-5--5--------3-3--3-----|       

G|------------------------------|    
D|--------------------------4-7-|    
A|--------5-5--5--------5-5-----|    
E|-5-5--5--------3-3--3---------|

G|---------------------------|
D|---------------------------|
A|--------5-5--5--------3-3-3|
E|-5-5--5--------3-3--3------|

G|------------------------------|    
D|--------------------------4-7-|    
A|--------5-5--5--------5-5-----|    
E|-5-5--5--------3-3--3---------|

G|--------------------------|        
D|--------------------------|        
A|--------5-5--5--------3-3-|        
E|-5-5--5--------3-3--3-----|       

G|-------------------------------|
D|----------------------7-7-4-7--|  
A|--------5-5--5-----------------|
E|-5-5--5--------3-3--3----------|

G|---------------------------|
D|---------------------------|
A|--------5-5--5--------3-3-3|
E|-5-5--5--------3-3--3------|

Jet set
G|-----------------------------5-5-|
D|-------------4-7-5-5-------------|
A|-----4-7-5-5---------3-4-5-5-----|
E|-5-5-----------------------------|

G|------------------------------|
D|-------------4-7-5-5----------|
A|-----4-7-5-5---------0-2-3--3-|
E|-5-5--------------------------|

G|-----------------------------5-5-|
D|-------------4-7-5-5-------------|
A|-----4-7-5-5---------3-4-5-5-----|
E|-5-5-----------------------------|

G|--------------------------------|
D|-------------4-7-5-5------------|
A|-----4-7-5-5---------0-2--------|
E|-5-5------------------------5-5-|

GRANDE SODA Y CERATI
Suggest correction
Give kudos to tab author, rate the tab!
1 2 3 4 5
comments
print report bad tab
guest
You may want to rate the tab now too:
select rating
Wanna post a correction for this tab? Suggest correction